Oops, an error
Loading. Please wait.

Come Together Bass Tab

73 views 6 this week
no commentswrite comment
1 2 3 4 5
3 more votes to show rating
add to favorites
launch autoscroll
font size
0
reset
guitar tuner
Autoscroll
slow
fast
+/-
esc
set tempo
stop
Help us to improve Ultimate-Guitar.com Take our survey!
×
------------------------------------------------------------------------------------
                         Come Together-Echosmith (Bass Tab)
------------------------------------------------------------------------------------

Tabbed by:Mark Donohue 
E-mail: mwdonohue97@gmail.com

Tuning:Standard 

____________________________________________________________________________________




[Intro] (0:14-0:28)

G|-------------------------------|-------------------------------|
D|---------------------3---------|--------------------------5-5--| (Play x2)
A|--------------------------3-5--|--3-3--3-3-3-5-----------------|
E|--1-1--1-1-1--1-1-1-----1------|----------------3-3-3--3-------|



[Verse 1] (0:28-0:55)

G|----------------------------|------------------------------|
D|----------------------------|------------------------------|
A|-------3-3-3---------5-5-5--|---------3-3-3---------5-5-5--|
E|--1-1---------5-5-5---------|--1-1-1---------5-5-5---------|

G|------------------------------|------------------------------|
D|------------------------------|------------------------------|
A|---------3-3-3---------5-5-5--|---------3-3-3---------5-5-5--|
E|--1-1-1---------5-5-5---------|--1-1-1---------5-5-5---------|

G|------------------------------|------------------------------|
D|------------------------------|------------------------------| (Play x2)
A|--8-8-8--3-3-3---------5-5-5--|--8-8-8--3-3-3---------5-5-5--|
E|----------------5-5-5---------|----------------5-5-5---------|



[Pre-Chorus] (0:56-1:10)

G|-------------------|----------------|-------------------------------|
D|-------------------|----------------|-------------------------------|
A|-------------------|----------------|-------------------------------|
E|--1------5/8-10\5--|--5/8-10\1------|--5/8-10-5----5-5-5-5-5-5-5-5--|



[Chorus] (1:10-1:37)

G|------------------------------------|-----------------------------------|
D|------------------------------------|-----------------------------------| 
A|------------------------------------|-----------------------------------|
E|--1-1-1-1-1-1-1-1-1-1-1-1-1-1-1-1/--|--8-8-8-8-8-8-8-8\3-3-3-3/8-8-7-5--|

G|------------------------------------|-----------------------------------|
D|------------------------------------|-----------------------------------| 
A|------------------------------------|-----------------------------------|
E|--1-1-1-1-1-1-1-1-1-1-1-1-1-1-1-1/--|--8-8-8-8-8-8-8-8\3-3-3-3-3-3-3-3--|

G|------------------------------------|-----------------------------------|
D|------------------------------------|-----------------------------------| 
A|--8-8-8-8-8-8-8-8--8---7---5--------|-----------------------------------|
E|-------------------------------5----|--8-8-8-8-8-8-8-8\3-3-3-3-3-3-3-3--|

G|------------------------------------|-----------------------------------|
D|------------------------------------|-----------------------------------| 
A|------------------------------------|-----------------------------------|
E|--1-1-1-1-1-1-1-1-1-1-1-1-1-1-1-1/--|--5-5-5-5-5-5-5-5\3-3-3-3-3-3-3-3--|



[Bridge] (1:38-1:44)

G|-------------------------------|-------------------------------|
D|---------------------3---------|--------------------------5-5--| 
A|--------------------------3-5--|--3-3--3-3-3-5-----------------|
E|--1-1--1-1-1--1-1-1-----1------|----------------3-3-3--3-------|



[Verse 2] (1:44-2:12)

G|----------------------------|------------------------------|
D|----------------------------|------------------------------|
A|-------3-3-3---------5-5-5--|---------3-3-3---------5-5-5--|
E|--1-1---------5-5-5---------|--1-1-1---------5-5-5---------|

G|------------------------------|------------------------------|
D|------------------------------|------------------------------|
A|---------3-3-3---------5-5-5--|---------3-3-3---------5-5-5--|
E|--1-1-1---------5-5-5---------|--1-1-1---------5-5-5---------|

G|------------------------------|------------------------------|
D|------------------------------|------------------------------| (Play x2)
A|--8-8-8--3-3-3---------5-5-5--|--8-8-8--3-3-3---------5-5-5--|
E|-----------------5-5-5--------|----------------5-5-5---------|



[Pre-Chorus] (2:12-2:26)

G|-------------------|----------------|-------------------------------|
D|-------------------|----------------|-------------------------------|
A|-------------------|----------------|-------------------------------|
E|--1------5/8-10\5--|--5/8-10\1------|--5/8-10-5----5-5-5-5-5-5-5-5--|



[Chorus] (2:26-2:54)

G|------------------------------------|-----------------------------------|
D|------------------------------------|-----------------------------------| 
A|------------------------------------|-----------------------------------|
E|--1-1-1-1-1-1-1-1-1-1-1-1-1-1-1-1/--|--8-8-8-8-8-8-8-8\3-3-3-3/8-8-7-5--|

G|------------------------------------|-----------------------------------|
D|------------------------------------|-----------------------------------| 
A|------------------------------------|-----------------------------------|
E|--1-1-1-1-1-1-1-1-1-1-1-1-1-1-1-1/--|--8-8-8-8-8-8-8-8\3-3-3-3-3-3-3-3--|

G|------------------------------------|-----------------------------------|
D|------------------------------------|-----------------------------------| 
A|--8-8-8-8-8-8-8-8--8---7---5--------|-----------------------------------|
E|-------------------------------5----|--8-8-8-8-8-8-8-8\3-3-3-3-3-3-3-3--|

G|------------------------------------|-----------------------------------|
D|------------------------------------|-----------------------------------| 
A|------------------------------------|-----------------------------------|
E|--1-1-1-1-1-1-1-1-1-1-1-1-1-1-1-1/--|--5-5-5-5-5-5-5-5\3-3-3-3-3-3-3-3--|



[Bridge] (3:23-3:30)

G|-------------------|--------------------|
D|-------------------|--------------------| 
A|-------------------|--------------------|
E|--1----------------|--8--------3--------|


[Chorus] (3:30-3:58)

G|------------------------------------|-----------------------------------|
D|------------------------------------|-----------------------------------| 
A|------------------------------------|-----------------------------------|
E|--1-1-1-1-1-1-1-1-1-1-1-1-1-1-1-1/--|--8-8-8-8-8-8-8-8\3-3-3-3/8-8-7-5--|

G|------------------------------------|-----------------------------------|
D|------------------------------------|-----------------------------------| 
A|------------------------------------|-----------------------------------|
E|--1-1-1-1-1-1-1-1-1-1-1-1-1-1-1-1/--|--8-8-8-8-8-8-8-8\3-3-3-3-3-3-3-3--|

G|------------------------------------|-----------------------------------|
D|------------------------------------|-----------------------------------| 
A|--8-8-8-8-8-8-8-8--8---7---5--------|-----------------------------------|
E|-------------------------------5----|--8-8-8-8-8-8-8-8\3-3-3-3-3-3-3-3--|

G|------------------------------------|-----------------------------------|
D|------------------------------------|-----------------------------------| 
A|------------------------------------|-----------------------------------|
E|--1-1-1-1-1-1-1-1-1-1-1-1-1-1-1-1/--|--5-5-5-5-5-5-5-5\3-3-3-3-3-3-3-3--|



[Outro] (3:58-4:39)

G|----------------------------|------------------------------|
D|----------------------------|------------------------------|
A|-------3-3-3---------5-5-5--|---------3-3-3---------5-5-5--|
E|--1-1---------5-5-5---------|--1-1-1---------5-5-5---------|

G|------------------------------|------------------------------|
D|------------------------------|------------------------------|
A|---------3-3-3---------5-5-5--|---------3-3-3---------5-5-5--|
E|--1-1-1---------5-5-5---------|--1-1-1---------5-5-5---------|

G|------------------------------|------------------------------|
D|------------------------------|------------------------------| (Play x4)
A|--8-8-8--3-3-3---------5-5-5--|--8-8-8--3-3-3---------5-5-5--|
E|-----------------5-5-5--------|----------------5-5-5---------|



************************************

| /   Slide up
| \   Slide down

************************************
Suggest correction
Give kudos to tab author, rate the tab!
1 2 3 4 5
comments
print report bad tab
guest
You may want to rate the tab now too:
select rating
Wanna post a correction for this tab? Suggest correction