Oops, an error
Loading. Please wait.

Come With Me tab

313 views 1 this week
no commentswrite comment
1 2 3 4 5
3 more votes to show rating
add to favorites
×
Save as Personal and add changes to this tab that will be seen only by you. Learn more ›
×
You can save this tab as Personal to edit and correct it or add notes. All changes will be seen only by you. Learn more »
launch autoscroll
font size
0
reset
how to read this tab
guitar tuner
edit
Autoscroll
slow
fast
+/-
esc
set tempo
stop
-------------------------------------------------------------------------------
                             Come With Me - Echosmith 
-------------------------------------------------------------------------------

Tabbed by:Mark Donohue 
E-mail:mwdonohue97@gmail.com

Tuning:Standard 


e|---------------------------------------------------------------------------| Intro   
B|---------------------------------------------------------------------------|
G|---5H---9H--9-12-7---9---5-------------------------------------------------|  
D|---------------------------7-5H--------------------------------------------|
A|---------------------------------------------------------------------------|
E|---------------------------------------------------------------------------|

e|------------------------------------------------------------12-------------| Intro x2   
B|-------------------------------------------------------8h10----10-8--------|
G|---9-9---12-9-9-7-7-9-9---12-9-9-7-7-5-5---5-5---5-5-----------------------|  
D|---------------------------------------------------------------------------|
A|---------------------------------------------------------------------------|
E|---------------------------------------------------------------------------|

e|---------------------------------------------------------------------------| Verse 1 
B|---------------------------------------------------------------------------|
G|---9-12-9H---7-7-9-9-9-10-9-5-7---9-9-12-7/9---5-7/9-7-7-------------------| Background noise/Are all the 
D|---------------------------------------------------------------------------| things that get in the way/
A|---------------------------------------------------------------------------| I had no choice/You came 
E|---------------------------------------------------------------------------| to me 

e|---------------------------------------------------------------------------| Verse 1 
B|---------------------------------------------------------------------------|
G|---5-5-4-0-7/9---5-5-5-9-9-9-9-7-7-5---2-2-2-0-7/9---5-5-9-7-7-5-5---------| I took you around/But it 
D|---------------------------------------------------------------------------| didn't matter where we were 
A|---------------------------------------------------------------------------| going/You're the only sound/ 
E|---------------------------------------------------------------------------| That I'll ever want to hear 

e|---------------------------------------------------------------------------| Chorus 
B|---------------------------------------------------------------------------|
G|---12-9\7-9---5-5-12-9-9-9-7-7-7-5-----------------------------------------| Come with me/And I'll take 
D|---------------------------------------------------------------------------| you away if you love me
A|---------------------------------------------------------------------------| 
E|---------------------------------------------------------------------------| 

e|---------------------------------------------------------------------------| Chorus 
B|---------------------------------------------------------------------------|
G|---12-9\7-9---5-5-12-9-9-9-7-7-7-5-----------------------------------------| Stay with me/And I'll cover
D|---------------------------------------------------------------------------| your soul with my body 
A|---------------------------------------------------------------------------|  
E|---------------------------------------------------------------------------| 

e|---------------------------------------------------------------------------| Chorus 
B|---------------------------------------------------------------------------|
G|---2-2-0-7H---5-5-7-9-7-5\2---2-2-2-0-7H---5-5-7-9-7-5\2-------------------| Give me your heart/And I'll
D|---------------------------------------------------------------------------| give you my love/It's a work 
A|---------------------------------------------------------------------------| of art/When you shine like 
E|---------------------------------------------------------------------------| the sun 

e|----------------------------------------------------------------------12--------| Bridge  
B|-----------------------------------------------------------------8h10----10-8---|
G|---5-5-5-12-9-9-7-5---9-9-7-7-9-9---12-9-9-7-7-5-5---5-5---5-5------------------| So give your heart   
D|--------------------------------------------------------------------------------| to me 
A|--------------------------------------------------------------------------------|
E|--------------------------------------------------------------------------------|

e|------------------------------------------------------------12-------------| Bridge  
B|-------------------------------------------------------8h10----10-8--------|
G|---9-9---12-9-9-7-7-9-9---12-9-9-7-7-5-5---5-5---5-5-----------------------| Give your heart to me 
D|---------------------------------------------------------------------------|
A|---------------------------------------------------------------------------|
E|---------------------------------------------------------------------------|

e|---------------------------------------8-7---------------------------------| Verse 2 
B|---------------------------------------------------------------------------|
G|---9-12-9H---7-7-9-9---10-10-9-5-7---5-----7-7-9---5-5-9-7-10-9-5-7--------| Carefully/You came to me,
D|---------------------------------------------------------------------------| ever so gently/Tonight you
A|---------------------------------------------------------------------------| look lovely/Let me wrap my
E|---------------------------------------------------------------------------| arms around you 

e|---------------------------------------------------------------------------| Verse 2 
B|---------------------------------------------------------------------------|
G|---5H-7H-9H-12H-7H---5-5-5-4-5-7-5-7-9-7-9-12-14-9-7-7-5-2-----------------| Let me take you home/I want
D|---------------------------------------------------------------------------| to myself you're the only 
A|---------------------------------------------------------------------------| thing that I ever need to 
E|---------------------------------------------------------------------------| know

e|---------------------------------------------------------------------------| Chorus 
B|---------------------------------------------------------------------------|
G|---12-9\7-9---5-5-12-9-9-9-7-7-7-5-----------------------------------------| Come with me/And I'll take 
D|---------------------------------------------------------------------------| you away if you love me
A|---------------------------------------------------------------------------| 
E|---------------------------------------------------------------------------| 

e|---------------------------------------------------------------------------| Chorus 
B|---------------------------------------------------------------------------|
G|---12-9\7-9---5-5-12-9-9-9-7-7-7-5-----------------------------------------| Stay with me/And I'll cover
D|---------------------------------------------------------------------------| your soul with my body 
A|---------------------------------------------------------------------------|  
E|---------------------------------------------------------------------------| 

e|---------------------------------------------------------------------------| Chorus 
B|---------------------------------------------------------------------------|
G|---2-2-0-7H---5-5-7-9-7-5\2---2-2-2-0-7H---5-5-7-9-7-5\2-------------------| Give me your heart/And I'll
D|---------------------------------------------------------------------------| give you my love/It's a work 
A|---------------------------------------------------------------------------| of art/When you shine like 
E|---------------------------------------------------------------------------| the sun 

e|---------------------------------------------------------------------------| Bridge 
B|---------------------------------------------------------------------------|
G|---5-5-5-12-9-9-5----------------------------------------------------------| So give your heart to me 
D|--------------------5-5-5-5---5-5-5-5---5-5-5-5----------------------------|
A|---------------------------------------------------------------------------|
E|---------------------------------------------------------------------------|

e|------------------12-------------10------------------8---------------------| Verse 3 
B|---10-10-10-10-10------8-8-8-8-8-------------------------------------------|
G|--------------------------------------10-10-10-10-10---9-7-5---------------| And all the stars tonight/
D|---------------------------------------------------------------------------| Are shining in your eyes/ 
A|---------------------------------------------------------------------------| Our love is looking so bright
E|---------------------------------------------------------------------------|

e|------------------12-------------10------------------8---------------------| Verse 3 
B|---10-10-10-10-10------8-8-8-8-8------10-10-10-10-10---9-7-5---------------|
G|---------------------------------------------------------------------------| Let's take a chance and see/
D|---------------------------------------------------------------------------| A chance of what could be/
A|---------------------------------------------------------------------------| In love and running so free 
E|---------------------------------------------------------------------------|

e|-----------------------8-----------------8---------------------------------| Verse 3 
B|---------------------------------------------------------------------------|
G|-------------------------9-7-5-------------9-7-5---9-7-5---12--------------| So free/So free,free,hey
D|---5-5-5-5---5-5-5-5-------------5-5-5-5-----------------------------------|
A|---------------------------------------------------------------------------|
E|---------------------------------------------------------------------------|

e|---------------------------------------------------------------------------| Chorus 
B|---------------------------------------------------------------------------|
G|---12-9\7-9---5-5-12-9-9-9-7-7-7-5-----------------------------------------| Come with me/And I'll take 
D|---------------------------------------------------------------------------| you away if you love me
A|---------------------------------------------------------------------------| 
E|---------------------------------------------------------------------------| 

e|---------------------------------------------------------------------------| Chorus 
B|---------------------------------------------------------------------------|
G|---12-9\7-9---5-5-12-9-9-9-7-7-7-5-----------------------------------------| Stay with me/And I'll cover
D|---------------------------------------------------------------------------| your soul with my body 
A|---------------------------------------------------------------------------|  
E|---------------------------------------------------------------------------| 

e|---------------------------------------------------------------------------| Chorus 
B|---------------------------------------------------------------------------|
G|---2-2-0-7H---5-5-7-9-7-5\2---2-2-2-0-7H---5-5-7-9-7-5\2-------------------| Give me your heart/And I'll
D|---------------------------------------------------------------------------| give you my love/It's a work 
A|---------------------------------------------------------------------------| of art/When you shine like 
E|---------------------------------------------------------------------------| the sun

e|----------------------------------------------------------------------12--------| Final 
B|-----------------------------------------------------------------8h10----10-8---|
G|---5-5-5-12-9-9-7-5---9-9-7-7-9-9---12-9-9-7-7-5-5---5-5---5-5------------------| So give your heart   
D|--------------------------------------------------------------------------------| to me 
A|--------------------------------------------------------------------------------|
E|--------------------------------------------------------------------------------|

************************************

Key: 

| /    Slide up
| \    Slide down
| h    Hammer on 
| H    Hold note 
| -    No pause 
| ---  Pause 

************************************

            
            
Suggest correction
Creating personal tab
Creating personal tab
You can edit any tab online and save it as your Personal.

You can edit, replace or remove any tab part or add personal notes – all changes will be seen only by you.

Personal tabs can be accessed anytime from any device, even offline.
Learn more »
Give kudos to tab author, rate the tab!
1 2 3 4 5
comments
print report bad tab
guest
You may want to rate the tab now too:
select rating
Wanna post a correction for this tab? Suggest correction