Oops, an error
Loading. Please wait.
We have Chord Pro version of Cool Kids.
It's the closest thing you can get to the original song and it has interactive parts. Check out the tab »
×
9,878 views 87 this week
3 commentsread comments
1 2 3 4 5
x 7
add to favorites
×
Save as Personal and add changes to this tab that will be seen only by you. Learn more ›
×
You can save this tab as Personal to edit and correct it or add notes. All changes will be seen only by you. Learn more »
launch autoscroll
font size
0
reset
how to read this tab
guitar tuner
backing track
0:00
0:00
edit
Autoscroll
slow
fast
+/-
esc
set tempo
stop
This tab combines parts of studio and live. Also, it contains the lead guitar, hence why itis drop d tuning. If you want to play just the chords, it's standard tuning.
 
**I changed to tab so the note played is actually on the fret you need to play. With a capo on you are no 
longer playing the "correct" note, but it does make it easier to understand/read.

Hope this helps.


Strongly recommend watching this video for help with rhythm. It's Jamie's tutorial:

https://www.youtube.com/watch?v=8fMVDjBQZlY

Capo 1 (Tuning: DADGBE)

Intro

E|---------------------|
B|---------------------|
G|---------------------|
D|---------------------|
A|------6--8--030------|
D|-3--6-----------0----|  X2

Verse All palm muted

e|--------------------------------------------|
B|--------------------------------------------|
G|--------------------------------------------|
D|---10---10-----8----6-----------------------|
A|-8----8-----4-----4-----6----6--6-----6-----|  X3
D|----------------------6-----6--6--6-8-------|

Chorus
(Em,Cmaj7,G,D) Strum:DDUUDU
e|---------------------------|
B|---------------------------|
G|---------------------------|
D|3---3-------5--------------|
A|3---4---3---6--------------|
E|3-------6------------------|  X2



These are the main parts.  Just figure out how many times you play each. 
Suggest correction
Creating personal tab
Creating personal tab
You can edit any tab online and save it as your Personal.

You can edit, replace or remove any tab part or add personal notes – all changes will be seen only by you.

Personal tabs can be accessed anytime from any device, even offline.
Learn more »
comments
print report bad tab
3 comments total.
0 reply
WeTheKings95 34 Nov 13, 2013 02:44 PM, edited on September 15 2014, 05:04 pm

Ignore

0 reply
Rocksmither 270 Dec 20, 2014 03:35 PM

Your actually the only one that tabbed the lead guitar. Five stars

guest
You may want to rate the tab now too:
select rating
Wanna post a correction for this tab? Suggest correction