Oops, an error
Loading. Please wait.

Lets Love tab

853 views 6 this week
no commentswrite comment
1 2 3 4 5
3 more votes to show rating
add to favorites
×
Save as Personal and add changes to this tab that will be seen only by you. Learn more ›
×
You can save this tab as Personal to edit and correct it or add notes. All changes will be seen only by you. Learn more »
launch autoscroll
font size
0
reset
how to read this tab
guitar tuner
edit
Autoscroll
slow
fast
+/-
esc
set tempo
stop
-------------------------------------------------------------------------------
                             Lets Love - Echosmith 
-------------------------------------------------------------------------------

Tabbed by:Mark Donohue 
E-mail:mwdonohue97@gmail.com

Tuning:Standard 

e|--------8------------------8---------10------------------------------------| Intro x2  
B|---8-10---8---8-----8-8-10---8---8-----------------------------------------|
G|------------9---9--------------9---9---------------------------------------|
D|---------------------------------------------------------------------------|
A|---------------------------------------------------------------------------|
E|---------------------------------------------------------------------------|

e|---8-7-7-------------------------------------------------------------------| Verse 1  
B|---------10-8---10-8-------------------------------------------------------|
G|---------------------7-5---5-7-9-9---5-10-9-9------------------------------| I'm just a girl,from the 
D|---------------------------------------------------------------------------| city/You came to me,like 
A|---------------------------------------------------------------------------| cavalry 
E|---------------------------------------------------------------------------|

e|---------------------------------------------------------------------------| Verse 1 
B|---------------------------------------------------------------------------|
G|---5-9-7-10-9-7-9-7-9---5-5-7-9-9---9-12-12-14-9---------------------------| Now all I want is to hold 
D|---------------------------------------------------------------------------| you now/I've been saving 
A|---------------------------------------------------------------------------| my soul,for someone like you 
E|---------------------------------------------------------------------------|

e|----------------------8------------7-7-------------------------------------| Chorus 
B|-----8-8---10-8-8---8---8--------------10-8--------------------------------|
G|---5------------------------5-5-5------------------------------------------| So let's love,while we're 
D|---------------------------------------------------------------------------| young/So let's love,before 
A|---------------------------------------------------------------------------| we've even begun 
E|---------------------------------------------------------------------------|

e|--------------------8------------------------------------------------------| Chorus 
B|-----8-6-10-8-8---8---8---6-8-5--------------------------------------------|
G|---9-----------------------------------------------------------------------| Oh darling,we'll be fine/
D|---------------------------------------------------------------------------| So let's love,while we're 
A|---------------------------------------------------------------------------| young 
E|---------------------------------------------------------------------------|

e|--------8------------------8---------10------------------------------------| Bridge   
B|---8-10---8---8-----8-8-10---8---8-----------------------------------------|
G|------------9---9--------------9---9---------------------------------------|
D|---------------------------------------------------------------------------|
A|---------------------------------------------------------------------------|
E|---------------------------------------------------------------------------|

e|---------------------------------------------------------------------------| Verse 2 
B|---------------------------------------------------------------------------|
G|---7-7-9-7-9---5-7-7-5-7-5---7-9-9---5-10-9-9------------------------------| You were the girl,that came 
D|---------------------------------------------------------------------------| with the sunrise/Long brown 
A|---------------------------------------------------------------------------| hair,and emerald eyes 
E|---------------------------------------------------------------------------|

e|---------------------------------------------------------------------------| Verse 2 
B|---------------------------------------------------------------------------|
G|---5-9-7-10-9-9-7-5-9-9---5-5-7-9-9---9-12-12-14-9-------------------------| Now I can't think of a day 
D|---------------------------------------------------------------------------| without you/I've been saving
A|---------------------------------------------------------------------------| my soul,for someone like you
E|---------------------------------------------------------------------------|

e|----------------------8------------7-7-------------------------------------| Chorus 
B|-----8-8---10-8-8---8---8--------------10-8--------------------------------|
G|---5------------------------5-5-5------------------------------------------| So let's love,while we're 
D|---------------------------------------------------------------------------| young/So let's love,before 
A|---------------------------------------------------------------------------| we've even begun 
E|---------------------------------------------------------------------------|

e|--------------------8------------------------------------------------------| Chorus 
B|-----8-6-10-8-8---8---8---6-8-5--------------------------------------------|
G|---9-----------------------------------------------------------------------| Oh darling,we'll be fine/
D|---------------------------------------------------------------------------| So let's love,while we're 
A|---------------------------------------------------------------------------| young 
E|---------------------------------------------------------------------------|

e|--------8------------------8---------10------------------------------------| Bridge   
B|---8-10---8---8-----8-8-10---8---8-----------------------------------------|
G|------------9---9--------------9---9---------------------------------------|
D|---------------------------------------------------------------------------|
A|---------------------------------------------------------------------------|
E|---------------------------------------------------------------------------|

e|---------------------------------------------------------------------------| Bridge 
B|---------------------------------------------------------------------------|
G|---7-9-7-9---7-5-7-5---5-5-7-9-7-9---5-10-9----------5/7-7/9-9-9-9-9-9-9---|
D|--------------------------------------------5/7-7/10-----------------------|
A|---------------------------------------------------------------------------|
E|---------------------------------------------------------------------------|

e|----------------------8------------7-7-------------------------------------| Chorus 
B|-----8-8---10-8-8---8---8--------------10-8--------------------------------|
G|---5------------------------5-5-5------------------------------------------| So let's love,while we're 
D|---------------------------------------------------------------------------| young/So let's love,before 
A|---------------------------------------------------------------------------| we've even begun 
E|---------------------------------------------------------------------------|

e|--------------------8------------------------------------------------------| Chorus 
B|-----8-6-10-8-8---8---8---6-8-5--------------------------------------------|
G|---9-----------------------------------------------------------------------| Oh darling,we'll be fine/
D|---------------------------------------------------------------------------| So let's love,while we're 
A|---------------------------------------------------------------------------| young 
E|---------------------------------------------------------------------------|

e|--------8------------------8---------10------------------------------------| Final   
B|---8-10---8---8-----8-8-10---8---8-----------------------------------------|
G|------------9---9--------------9---9---------------------------------------|
D|---------------------------------------------------------------------------|
A|---------------------------------------------------------------------------|
E|---------------------------------------------------------------------------|

e|--------8------------------8---------10-8H---------------------------------| Final   
B|---8-10---8---8-----8-8-10---8---8-----------------------------------------|
G|------------9---9--------------9---9---------------------------------------|
D|---------------------------------------------------------------------------|
A|---------------------------------------------------------------------------|
E|---------------------------------------------------------------------------|

************************************

Key:

| /    slide up
| H    Hold note 
| -    No pause 
| ---  Pause 

************************************

            
            
Suggest correction
Creating personal tab
Creating personal tab
You can edit any tab online and save it as your Personal.

You can edit, replace or remove any tab part or add personal notes – all changes will be seen only by you.

Personal tabs can be accessed anytime from any device, even offline.
Learn more »
Give kudos to tab author, rate the tab!
1 2 3 4 5
comments
print report bad tab
guest
You may want to rate the tab now too:
select rating
Wanna post a correction for this tab? Suggest correction