Oops, an error
Loading. Please wait.

Nothings Wrong tab

version 2
version 2

Whole song

409 views 9 this week
no commentswrite comment
1 2 3 4 5
2 more votes to show rating
add to favorites
×
Save as Personal and add changes to this tab that will be seen only by you. Learn more ›
×
You can save this tab as Personal to edit and correct it or add notes. All changes will be seen only by you. Learn more »
launch autoscroll
font size
0
reset
how to read this tab
guitar tuner
edit
Autoscroll
slow
fast
+/-
esc
set tempo
stop
-------------------------------------------------------------------------------
                             Nothing's Wrong - Echosmith 
-------------------------------------------------------------------------------
Tabbed by:Mark Donohue 
E-mail:mwdonohue97@gmail.com

Tuning:Standard 

Thanks for checking out my tab! "Nothing's Wrong" is one of my favorite songs, and it is a blast to play on
the guitar! The notes are based on the overall sound of the song, instead of just the guitar that is
audible.  


e|---4-4-4-4-4-4-4-----------------------------------------------------------| Intro 
B|---------------------------------------------------------------------------|
G|---------------------------------------------------------------------------| We walk like there's nothing 
D|---------------------9-11-13-11-----6-9-11-9-----9-11-13-11-----6-9-11-9---| wrong 
A|---------------------------------------------------------------------------|
E|-------------------0--------------0------------0--------------0------------|

e|---------------------------------------------------------------------------| Verse 1  
B|---0-5-4-2-0-2-------0-5-4-2-0-2------------------------------------ ------|
G|---------------1-1---------------1-1---------------------------------------| She's sitting alone in her 
D|---------------------------------------------------------------------------| chair/She covers her eyes with
A|---------------------------------------------------------------------------| her hair 
E|---------------------------------------------------------------------------|

e|---------------------------------------------------------------------------| Verse 1 
B|---0-7-7-9-7-5-5---0---7-7-9-2-5-5-0---------------------------------------|
G|---------------------------------------------------------------------------| She smokes one last cigarette 
D|-----------------------------------------6-9-11-9--------------------------| and waits for the whole world 
A|---------------------------------------------------------------------------| to turn  
E|---------------------------------------0-----------------------------------|

e|---------------------------------------------------------------------------| Verse 1 
B|---0-5-4-2-0-2-------0-5-4-2-0-0-2-----------------------------------------|
G|---------------1-1-----------------1-1-------------------------------------| She's loving the smell in the 
D|---------------------------------------------------------------------------| air/She'd stop but she really 
A|---------------------------------------------------------------------------| doesn't care 
E|---------------------------------------------------------------------------|

e|---------------------------------------------------------------------------| Verse 1 
B|---7-7-9-2---7-7-9-2-5-5-0-------------------------------------------------|
G|---------------------------------------------------------------------------| What's she to do, wait for the 
D|-------------------------------6-9-11-9------------------------------------| whole world to burn 
A|---------------------------------------------------------------------------|
E|-----------------------------0---------------------------------------------|

e|---------------------------------------------------------------------------| Verse 1 
B|---7-9-2-2-7-9-2-5---0-----------------------------------------------------|
G|---------------------------------------------------------------------------| Cause kids like us we don't 
D|---------------------------------------------------------------------------| know when to stop 
A|---------------------------------------------------------------------------|
E|---------------------------------------------------------------------------|

e|---4-7-4-7-4-7-9-4-2---0-2-4-2---0-2-4-2---4-7-4-7-4-7-9-4-2-2-0-----0-2-4-2-| Chorus 
B|-----------------------------------------------------------------2-----------|
G|-----------------------------------------------------------------------------| We walk, we walk, we just 
D|-----------------------------------------------------------------------------| keep walking/We move, we  
A|-----------------------------------------------------------------------------| move, we just keep moving 
E|-----------------------------------------------------------------------------| on 

e|---4-7-4-7-4-7-7-7-12-11-9-7---0-2-4-2---4-7-4-7-4-7-9-4-2-2-0-------------| Chorus 
B|---------------------------------------------------------------2-----------|
G|---------------------------------------------------------------------------| We sing, we sing, we sing at 
D|---------------------------------------------------------------------------| the top of our lungs/ We walk,
A|---------------------------------------------------------------------------| we walk, we walk like
E|---------------------------------------------------------------------------| nothing's wrong 
                                                                              
e|---4-4-4-4-4-4-4-----------------------------------------------------------| Chorus  
B|---------------------------------------------------------------------------|
G|---------------------------------------------------------------------------| We walk like there's nothing 
D|---------------------9-11-13-11-----6-9-11-9-----9-11-13-11-----6-9-11-9---| wrong 
A|---------------------------------------------------------------------------|
E|-------------------0--------------0------------0--------------0------------|

e|---------------------------------------------------------------------------| Verse 2 
B|---0-5-4-2-0-2-------0-5-4-2-0-2-------------------------------------------|
G|---------------1-1---------------1-1---------------------------------------| He places a rose in her hair/
D|---------------------------------------------------------------------------| He stops for a moment and 
A|---------------------------------------------------------------------------| stares
E|---------------------------------------------------------------------------|

e|---------------------------------------------------------------------------| Verse 2 
B|---2-7-7-9-2-2---7-7-9-2-2-5-5-0-------------------------------------------|
G|---------------------------------------------------------------------------| Her beauty's a wonder, makes 
D|-------------------------------------6-9-11-9------------------------------| him forget about the end 
A|---------------------------------------------------------------------------|
E|-----------------------------------0---------------------------------------|

e|---------------------------------------------------------------------------| Verse 2 
B|---2-7-7-9-2-2---9-2-2-5-5-0-----------------------------------------------|
G|---------------------------------------------------------------------------| Cause when it's all over, 
D|---------------------------------------------------------------------------| whose really gonna care 
A|---------------------------------------------------------------------------|
E|---------------------------------------------------------------------------|

e|---4-7-4-7-4-7-9-4-2---0-2-4-2---0-2-4-2---4-7-4-7-4-7-9-4-2-2-0-----0-2-4-2-| Chorus 
B|-----------------------------------------------------------------2-----------|
G|-----------------------------------------------------------------------------| We walk, we walk, we just 
D|-----------------------------------------------------------------------------| keep walking/We move, we  
A|-----------------------------------------------------------------------------| move, we just keep moving 
E|-----------------------------------------------------------------------------| on 

e|---4-7-4-7-4-7-7-7-12-11-9-7---0-2-4-2---4-7-4-7-4-7-9-4-2-2-0-------------| Chorus 
B|---------------------------------------------------------------2-----------|
G|---------------------------------------------------------------------------| We sing, we sing, we sing at 
D|---------------------------------------------------------------------------| the top of our lungs/ We walk,
A|---------------------------------------------------------------------------| we walk, we walk like
E|---------------------------------------------------------------------------| nothing's wrong 
                                                                              

e|---4-4-4-4-4-4-4-----------------------------------------------------------| Chorus 
B|---------------------------------------------------------------------------| 
G|---------------------------------------------------------------------------| We walk like there's nothing 
D|----------------------7/9------7/9-----------------------------------------| wrong/ooh ooh, ooh ooh  
A|---------------------------------------------------------------------------|
E|---------------------------------------------------------------------------|

e|---4-4-4-0X---------4-4-4-0X---------4-4-4-0X---------4-4-4-0X-------------| Verse 3 
B|---------------------------------------------------------------------------|
G|---------------------------------------------------------------------------| We're gonna walk, ooh ooh/
D|--------------7/9--------------7/9--------------7/9--------------7/9-------| We're gonna walk, ooh ooh/
A|---------------------------------------------------------------------------| We're gonna walk, ooh ooh/
E|---------------------------------------------------------------------------| We're gonna walk, ooh ooh 
 
e|---4-7-4-7-4-7-9-4-2---0-2-4-2---0-2-4-2---4-7-4-7-4-7-9-4-2-2-0-----0-2-4-2-| Chorus 
B|-----------------------------------------------------------------2-----------|
G|-----------------------------------------------------------------------------| We walk, we walk, we just 
D|-----------------------------------------------------------------------------| keep walking/We move, we  
A|-----------------------------------------------------------------------------| move, we just keep moving 
E|-----------------------------------------------------------------------------| on 

e|---4-7-4-7-4-7-7-7-12-11-9-7---0-2-4-2---4-7-4-7-4-7-9-4-2-2-0-------------| Chorus 
B|---------------------------------------------------------------2-----------|
G|---------------------------------------------------------------------------| We sing, we sing, we sing at 
D|---------------------------------------------------------------------------| the top of our lungs/ We walk,
A|---------------------------------------------------------------------------| we walk, we walk like
E|---------------------------------------------------------------------------| nothing's wrong 
                                                                              

e|---4-4-4-4-4-4-4-----------------------------------------------------------| Chorus 
B|---------------------------------------------------------------------------| 
G|---------------------------------------------------------------------------| We walk like there's nothing 
D|---------------------9-11-13-11-----6-9-11-9-----9-11-13-11-----6-9-11-9---| wrong/We walk like there's  
A|---------------------------------------------------------------------------| nothing wrong 
E|-------------------0--------------0------------0--------------0------------|

e|---------------------------------------------------------------------------| Chorus 
B|---------------------------------------------------------------------------| 
G|---------------------------------------------------------------------------| We walk like there's nothing 
D|-----9-11-13-11-----6-9-11-9-----9-11-13-11-----6-9-11-9-------------------| wrong  
A|---------------------------------------------------------------------------|  
E|---0--------------0------------0--------------0----------------------------|

************************************

Key: 

| /       Slide Up 
| x       Mute Note (after playing)
| -       No Pause 
| ---     Slight Pause 
| ------  Longer Pause 

************************************

            
            
Suggest correction
Creating personal tab
Creating personal tab
You can edit any tab online and save it as your Personal.

You can edit, replace or remove any tab part or add personal notes – all changes will be seen only by you.

Personal tabs can be accessed anytime from any device, even offline.
Learn more »
Give kudos to tab author, rate the tab!
1 2 3 4 5
comments
print report bad tab
guest
You may want to rate the tab now too:
select rating
Wanna post a correction for this tab? Suggest correction