Oops, an error
Loading. Please wait.

Parker Dewitt - Ill Tell You I Love You Acoustic chords

22 views 1 this week
no commentswrite comment
1 2 3 4 5
2 more votes to show rating
add to favorites
×
Save as Personal and add changes to this tab that will be seen only by you. Learn more ›
×
You can save this tab as Personal to edit and correct it or add notes. All changes will be seen only by you. Learn more »
launch autoscroll
font size
0
reset
transpose
0
reset
simplify chords
display chords
guitar tuner
edit
Autoscroll
slow
fast
+/-
esc
set tempo
stop
Strumming
There is no strumming pattern for this song yet. and get +5 IQ
[Intro]

e|---------------------------------------------------------------------------|
B|-------1-------1-------1-------1-------1-------1-------1-------1-------1---|
G|----0-------0-------0-------0-------0-------0-------0-------0-------0------|
D|-3---3---3---3---3---3---3---3-----------------------------------3---3---3-|
A|---------------------------------3---3---3---3---3---3---3---3-------------|
E|---------------------------------------------------------------------------|

e|----0----------------------------------------------------------------------|
B|----1-------1-------1-------1-------1-------1-------1----------------------|
G|-0-------0-------0-------0-------0-------0-------0-------------------------|
D|--3---3---3---3---3--------------------------------------------------------|
A|----------------------3---3---3---3---3---3---3---3------------------------|
E|---------------------------------------------------------------------------|


[Verse 1]

Csus4
i'll tell you a story 
                       C
nothing but the honest truth
Csus4
i'll treat you better
                   C
you bet ill see it through

Csus4
i'll try to be everything you want
                        C
and everything that you need too
Csus4
when you say you love me
                         C
i'll tell you I love you too

Csus4               C
whoa oh, whoa oh oh oh oo whoa, oh
Csus4               C
whoa oh, whoa oh oh oh oo whoa

Csus4
i'll give you a reason
                       C
a reason to love all I do

Csus4
you tell me secrets
                      C
i'll tell you secrets too
Csus4
when you say you love me
                         C
i'll tell you I love you too


[Chorus]

         Csus4
and I wont run away run away
           C
when I get tired
             Csus4
cuz this would slip away slip away
            C
and start a fire
                    Csus4
that can never be put out
                                  C
ill hurry up before the time runs out
         Csus4
but I won't run away run away
         C             C
before I tell you 

I love you

Csus4               C
whoa oh, whoa oh oh oh oo whoa, oh
Csus4               C
whoa oh, whoa oh oh oh oo whoa


[Verse 2]

Csus4
when you say you need me
                         C
i'll tell you I need you too
Csus4
i'll tell you clearly
                             C
speak what my heart wants me to

Csus4
i'll tell you your lovely
                    C
always tell you the truth
Csus4
when you say you love me
                         C
i'll tell you I love you too


[Chorus]

                Csus4
but please don't run away run away
           C
when you get tired
             Csus4
cuz this would slip away slip away
            C
and start a fire
                    Csus4
that can never be put out
                                  C
ill hurry up before the time runs out
           Csus4
and i won't run away run away
           C             C
before you tell me 

I love you


[Outro]

Csus4               C
whoa oh, whoa oh oh oh oo whoa, oh
Csus4               C
whoa oh, whoa oh oh oh oo whoa
Csus4* C/G*
     I love you





            
            
Suggest correction
Creating personal tab
Creating personal tab
You can edit any tab online and save it as your Personal.

You can edit, replace or remove any tab part or add personal notes – all changes will be seen only by you.

Personal tabs can be accessed anytime from any device, even offline.
Learn more »
Give kudos to tab author, rate the tab!
1 2 3 4 5
comments
print report bad tab
guest
You may want to rate the tab now too:
select rating
Wanna post a correction for this tab? Suggest correction