Oops, an error
Loading. Please wait.

Surround You tab

version 1
version 1

Whole song

1,979 views 9 this week
no commentswrite comment
1 2 3 4 5
x 3
add to favorites
×
Save as Personal and add changes to this tab that will be seen only by you. Learn more ›
×
You can save this tab as Personal to edit and correct it or add notes. All changes will be seen only by you. Learn more »
launch autoscroll
font size
0
reset
how to read this tab
guitar tuner
edit
Autoscroll
slow
fast
+/-
esc
set tempo
stop
-------------------------------------------------------------------------------
                             Surround You - Echosmith 
-------------------------------------------------------------------------------

Tabbed by:Mark Donohue 
E-mail:mwdonohue97@gmail.com

Tuning:Standard 

Such a beautiful song. Enjoy! 


e|---------------------------------------------------------------------------| Intro 
B|---------------------------------------------------------------------------|
G|-------2-------------------------------------------------------------------| 
D|---0-----4-4-2-0-----0-----4---4-4-4-2-0-----0-----------------------------|
A|-------------------4-----------------------4-------------------------------|
E|-----------------------3-----------------------3---------------------------|

e|---------------------------------------------------------------------------| Chorus 
B|---10-7-7-5-3---5-3-0------10-7-7---3---5-3-0------------------------------|
G|----------------------------------------------2----------------------------| I searched valleys and 
D|---------------------------------------------------------------------------| mountaintops/Rolling hills 
A|---------------------------------------------------------------------------| and ticking clocks were 
E|---------------------------------------------------------------------------|

e|---------------------------------------------------------------------------| Chorus 
B|---10-7-7---5-3-3------5-7-7-7-5-3-3---------------------------------------|
G|---------------------------------------------------------------------------| All I heard, all that sound/
D|---------------------------------------------------------------------------| Never thought love could be
A|---------------------------------------------------------------------------| found 
E|---------------------------------------------------------------------------|

e|-----------------------------------------------------------------------------------| Bridge 
B|---5-3------2-3--------5-3------2-3--------5-3------2-3--------5-3------2-3--------|
G|------------------0H------------------0H------------------0H------------------0H---| Love/Love/Love/Love
D|-----------------------------------------------------------------------------------|
A|-----------------------------------------------------------------------------------|
E|-----------------------------------------------------------------------------------|

e|---------------------------------------------------------------------------| Verse 1 
B|---10-7-7-5-3---5-3-0------10-7-7-5-3---5-3-0------------------------------|
G|---------------------------------------------------------------------------| I kept passing by every sign/
D|---------------------------------------------------------------------------| Hoping one day I'd make you 
A|---------------------------------------------------------------------------| mine 
E|---------------------------------------------------------------------------|

e|---------------------------------------------------------------------------| Verse 1 
B|---10-7-7-3---5-7-7------7-7-7-7-5-5-3-3---5-3-3---------------------------|
G|---------------------------------------------------------------------------| We'd be laughing side by side/
D|---------------------------------------------------------------------------| Darling I'm thrilled to have 
A|---------------------------------------------------------------------------| you by,by my side 
E|---------------------------------------------------------------------------|

e|---------------------------------------------------------------------------| Bridge 
B|---------------------------------------------------------------------------|
G|---------------------------------------------------------------------------| 
D|---4-4-4-4-4-4-4-2-4-4-4-4-4-4-4-2-4-4-4-4-4-4-4-2-4-4-4-4-4-4-4-2---------|
A|---------------------------------------------------------------------------|
E|---------------------------------------------------------------------------|

e|---------------------------------------------------------------------------| Bridge 
B|---------------------------------------------------------------------------|
G|---7H6-------------7H6-------------7---------------------------------------| Love/Love/Love
D|---------4-4-4-2---------4-4-4-2-------------------------------------------|
A|---------------------------------------------------------------------------|
E|---------------------------------------------------------------------------|

e|---------------------------------------------------------------------------| Verse 2 
B|---3-7-5-3-3-0-3-0--------3-7-5-3-3-0-3-0----------------------------------|
G|-------------------2----------------------2--------------------------------| Wherever you are(Love)/ 
D|---------------------------------------------------------------------------| Whenever you need me(Love)  
A|---------------------------------------------------------------------------|
E|---------------------------------------------------------------------------|

e|---------------------------------------------------------------------------| Verse 2 
B|---3-7-5-3-3-0-3-0-----3-10-8-8-7-7-8-3-5-7-10-----------------------------|
G|-------------------2-------------------------------------------------------| Just crawl in my arms(Love)/
D|---------------------------------------------------------------------------| And I'll hold you beside me 
A|---------------------------------------------------------------------------|
E|---------------------------------------------------------------------------|

e|---------------------------------------------------------------------------| Verse 2  
B|---2-------10-8-8-7-7-3-----2-------10-8-8-7-7-3---------------------------|
G|-------2----------------2-------2----------------2-------------------------| I want my love to surround
D|---------------------------------------------------------------------------| you/I want my love to surround
A|---------------------------------------------------------------------------| you
E|---------------------------------------------------------------------------|

e|---------------------------------------------------------------------------| Verse 2  
B|---2-------7-7-7-8-10---2-------10-8-8-7-7-3--------3----------------------|
G|-------2--------------------2----------------2-----------------------------| And I'll just sing it out/
D|---------------------------------------------------------------------------| I want my love to surround 
A|---------------------------------------------------------------------------| you 
E|---------------------------------------------------------------------------|

e|---------------------------------------------------------------------------| Bridge 
B|---------------------------------------------------------------------------|
G|---2-----------------------------------------------------------------------| 
D|-----4-4-2-0-----0-----4---4-4-4-2-0-----0---------------------------------|
A|---------------4-----------------------4---3-------------------------------|
E|-------------------3-------------------------------------------------------|

e|---------------------------------------------------------------------------| Chorus 
B|---10-7-7-5-3---5-3-0------10-7-7---3---5-3-0------------------------------|
G|----------------------------------------------2----------------------------| I searched valleys and 
D|---------------------------------------------------------------------------| mountaintops/Rolling hills 
A|---------------------------------------------------------------------------| and ticking clocks were 
E|---------------------------------------------------------------------------|

e|---------------------------------------------------------------------------| Chorus 
B|---10-7-7---5-3-3------5-7-7-7-5-3-3---------------------------------------| 
G|------------------------------------------2--------------------------------|
D|--------------------------------------------4------------------------------| All I heard, all that sound/
A|---------------------------------------------------------------------------| Never thought love could be  
E|---------------------------------------------------------------------------| found 

************************************

Key: 

| H       Hold note 
| -       No pause 
| ---     Slight pause 
| ------  Longer pause 

************************************

            
            
Suggest correction
Creating personal tab
Creating personal tab
You can edit any tab online and save it as your Personal.

You can edit, replace or remove any tab part or add personal notes – all changes will be seen only by you.

Personal tabs can be accessed anytime from any device, even offline.
Learn more »
Give kudos to tab author, rate the tab!
1 2 3 4 5
comments
print report bad tab
guest
You may want to rate the tab now too:
select rating
Wanna post a correction for this tab? Suggest correction