Oops, an error
Loading. Please wait.

Talking Dreams bass

187 views 3 this week
no commentswrite comment
1 2 3 4 5
3 more votes to show rating
add to favorites
×
Save as Personal and add changes to this tab that will be seen only by you. Learn more ›
×
You can save this tab as Personal to edit and correct it or add notes. All changes will be seen only by you. Learn more »
launch autoscroll
font size
0
reset
guitar tuner
edit
Autoscroll
slow
fast
+/-
esc
set tempo
stop
---------------------------------------------------------------------------------------------
                                Tslking Dreams-Echosmith (Bass Tab)
---------------------------------------------------------------------------------------------

Tabbed by:Mark Donohue
Email:mwdonohue97@gmail.com

Tuning:Standard

Note:Pick strumming reccomended  


Hey all! I tabbed this "Talking Dreams" tab from a live version, as the Bass is more prominent in it.  
The tab also matches up to the studio version.

Here is the link to the youtube video for the live version: https://www.youtube.com/watch?v=WNsp5vSXGuQ

_______________________________________________________________________________________________________


INTRO (0:03-0:15)

G|-------|-----------------------|-----------------------|
D|-------|------------6----------|------------6-----9----| (Play x2)
A|--9\2--|------7-7-9---9-7------|--0---7-7-9---9-7---9--|
E|-------|--0---------------9-7--|-----------------------|


VERSE 1 (0:16-0:41)

G|---------------------------------------------------|-----------------------------------|
D|---------------------------------------------------|-----------------------------------| (Play x3)
A|---------------------------------------------------|-----------------------------------|
E|--12-12-12-12-12-12-12-12-12-12-12-12-12-12-12-12--|--5-5-5-5-5-5-5-5-5-5-5-5-5-5-5-5--|

G|---------------------------------------------------|-----------------------------------|
D|---------------------------------------------------|-----------------------------------| 
A|---------------------------------------------------|-----------------------------------|
E|--12-12-12-12-12-12-12-12-12-12-12-12-12-14-14-12--|--5-5-5-5-5-5-5-5-5-5-5-5-5-5-5-5--|


CHORUS (0:42-0:54)

G|-----------------------|-----------------------|
D|------------6----------|------------6-----9----| (Play x2)
A|------7-7-9---9-7---7--|--0---7-7-9---9-7---9--|
E|--0---------------9----|-----------------------|


VERSE 2 (0:54-1:07)

G|---------------------------------------------------|-----------------------------------|
D|---------------------------------------------------|-----------------------------------| (Play x2)
A|---------------------------------------------------|-----------------------------------|
E|--12-12-12-12-12-12-12-12-12-12-12-12-12-12-12-12--|--5-5-5-5-5-5-5-5-5-5-5-5-5-5-5-5--|


CHORUS (1:07-1:19)

G|-----------------------|-----------------------|
D|------------6----------|------------6-----9----| (Play x2)
A|------7-7-9---9-7---7--|--0---7-7-9---9-7---9--|
E|--0---------------9----|-----------------------|


BRIDGE (1:28-1:45)

G|------8------|------------|----------8------|------------|----------8------|------------|
D|--9-6---9-6--|------------|------9-6---9-6--|------------|------9-6---9-6--|------------|
A|-------------|--7------9--|--0--------------|--7------9--|--0--------------|--7------9--|
E|-------------|------------|-----------------|------------|-----------------|------------|

G|---------------------------------------------------|-----------------------------------|
D|---------------------------------------------------|-----------------------------------| (Play x2)
A|---------------------------------------------------|-----------------------------------|
E|--12-12-12-12-12-12-12-12-12-12-12-12-12-12-12-12--|--5-5-5-5-5-5-5-5-5-5-5-5-5-5-5-5--|

G|-------------------------------------------------|-----------------------------------|
D|-------------------------------------------------|----------------------------6-9-6--|
A|-------------------------------------------------|------------------------7-9--------|
E|--12-12-12-12-12-12-12-12-12-12-12-14-14-12-9-7--|--5-5-5-5-5-5-5-5-5-7-9------------|

G|---------------------------------------------------|-----------------------------------|
D|---------------------------------------------------|-----------------------------------| 
A|---------------------------------------------------|-----------------------------------|
E|--12-12-12-12-12-12-12-12-12-12-12-12-12-14-14-14--|--5-5-5-5-5-5-5-5-5-5-5-5-5-5-5-5--|


VERSE 3 (2:11-2:36)

G|---------------------------------------------------|-----------------------------------|
D|---------------------------------------------------|-----------------------------------| (Play x2)
A|---------------------------------------------------|-----------------------------------|         
E|--12-12-12-12-12-12-12-12-12-12-12-12-12-12-12-12--|--5-5-5-5-5-5-5-5-5-5-5-5-5-5-5-5--|

G|---------------------------------------------------|-----------------------------------| (Play x2)
D|---------------------------------------------------|-----------------------------------| 
A|---------------------------------------------------|-----------------------------------|
E|--12-12-12-12-12-12-12-12-12-12-12-12-12-14-14-12--|--5-5-5-5-5-5-5-5-5-5-5-5-5-5-5-5--|


CHORUS (2:37-End)

G|-----------------------|-----------------------|
D|------------6----------|------------6-----9----| (Play x4)
A|------7-7-9---9-7---7--|--0---7-7-9---9-7---9--|
E|--0---------------9----|-----------------------|

G|---------|
D|---------|
A|---------|
E|--0------| (Let note ring)


************************************

| \  Slide down

************************************
Suggest correction
Creating personal tab
Creating personal tab
You can edit any tab online and save it as your Personal.

You can edit, replace or remove any tab part or add personal notes – all changes will be seen only by you.

Personal tabs can be accessed anytime from any device, even offline.
Learn more »
Give kudos to tab author, rate the tab!
1 2 3 4 5
comments
print report bad tab
guest
You may want to rate the tab now too:
select rating
Wanna post a correction for this tab? Suggest correction