Oops, an error
Loading. Please wait.

Tell Her You Love Her Acoustic tab

version 1
version 1

Whole song

1,683 views 15 this week
2 commentsread comments
1 2 3 4 5
x 4
add to favorites
×
Save as Personal and add changes to this tab that will be seen only by you. Learn more ›
×
You can save this tab as Personal to edit and correct it or add notes. All changes will be seen only by you. Learn more »
launch autoscroll
font size
0
reset
how to read this tab
guitar tuner
edit
Autoscroll
slow
fast
+/-
esc
set tempo
stop
--------------------------------------------------------------------------------------------
                 Tell Her You Love Her(Acoustic)-Echosmith (Playable Vocals) 
--------------------------------------------------------------------------------------------

Tabbed by:Mark Donohue 
E-mail:mwdonohue97@gmail.com

Tuning:Standard 

____________________________________________________________________________________________


e|---------------------------------------------------------------------------| INTRO  
B|-----------------------------------------------7---------------------------|
G|-------7-------7-------7-------7-------7---------------7-------7-----------|
D|---5-7-----5-7-------7-------7-----5-7-----5-7-------7-------7-------------|
A|-------------------5-------5-----------------------5-------5---------------|
E|---------------------------------------------------------------------------|

e|---------------------------------------------------------------------------| VERSE 1 
B|---7-7-5-3-0---7-7-5-3-0---------7-7-5-3-0---7-7-5-3-0---------------------| 
G|-------------------------2---2-------------------------2---2---------------| Tell her a story, tell her 
D|---------------------------------------------------------------------------| the honest truth/You treat 
A|---------------------------------------------------------------------------| her better, make sure to 
E|---------------------------------------------------------------------------| see it through 

e|---------------------------------------------------------------------------|  
B|---7-7-5-3-3-3-0-5-7---0-3-0-3-0---------0-7-7-5-3-0---7-7-5-3-0-----------|
G|---------------------------------2---2---------------------------2---2-----| Don't be just everything she 
D|---------------------------------------------------------------------------| wants,be everything she 
A|---------------------------------------------------------------------------| needs/When she says she loves 
E|---------------------------------------------------------------------------| you, tell her you love her too

e|---------------------------------------------------------------------------| BRIDGE 
B|---10-7---3-12-10-7-5-3------10-7---3-12-10-7-5-3--------------------------|
G|---------------------------------------------------------------------------| Ooh ooh, ooh ooh ooh ooh ooh
D|---------------------------------------------------------------------------| ooh/Ooh ooh, ooh ooh ooh 
A|---------------------------------------------------------------------------| ooh ooh ooh 
E|---------------------------------------------------------------------------|

e|---------------------------------------------------------------------------| VERSE 2 
B|---7-7-5-3-0---7-7-5-3-3-0---------5-7-5-3-0---5-7-5-3-0-------------------|
G|---------------------------2---2-------------------------2---2-------------| Give her a reason,reason
D|---------------------------------------------------------------------------| to love all you do/She'll 
A|---------------------------------------------------------------------------| tell you secrets,you'll 
E|---------------------------------------------------------------------------| tell her secrets too 

e|---------------------------------------------------------------------------| 
B|---7-7-5-3-3-3-0-5-7---7-10-12-5-3---0-7-7-5-3-0---7-7-5-3-0---------------|
G|-------------------------------------------------------------2---2---------| She'll tell you all her 
D|---------------------------------------------------------------------------| hopes and dreams,you'll 
A|---------------------------------------------------------------------------| tell them too/When she says 
E|---------------------------------------------------------------------------| she loves you, tell her you
                                                                               love her too

e|---------------------------------------------------------------------------|   
B|---7-7-5-3-0-----10--------------------------------------------------------|
G|-------------2-------------------------------------------------------------| Tell her you love her too 
D|---------------------------------------------------------------------------|
A|---------------------------------------------------------------------------|
E|---------------------------------------------------------------------------|

e|---------------------------------------------------------------------------| CHORUS 
B|---7-5-3---10-12-12-10-12-12---10-12-10-7-5--------------------------------|
G|---------------------------------------------------------------------------| But don't you runaway, 
D|---------------------------------------------------------------------------| runaway,when you get tired
A|---------------------------------------------------------------------------|
E|---------------------------------------------------------------------------|

e|---------------------------------------------------------------------------|  
B|---3-5-3---10-12-12-10-12-12---10-12-10-7-8-7-5----------------------------|
G|---------------------------------------------------------------------------| Cause this will slip away, 
D|---------------------------------------------------------------------------| slip away,and start a fire 
A|---------------------------------------------------------------------------|
E|---------------------------------------------------------------------------|

e|---------------------------------------------------------------------------|  
B|---3-8-7-0-0-0-3-5-7---0-8-7-0-0-0-10-7-5----------------------------------|
G|---------------------------------------------------------------------------| Ooh,that can never be put 
D|---------------------------------------------------------------------------| out,ooh hurry time is running 
A|---------------------------------------------------------------------------| out 
E|---------------------------------------------------------------------------|

e|---------------------------------------------------------------------------|  
B|---7-5-3---10-12-12-10-12-12---10-12-10-7-5---3-8-7------------------------|
G|---------------------------------------------------------------------------| But don't you runaway, 
D|---------------------------------------------------------------------------| runaway,before you tell her, 
A|---------------------------------------------------------------------------| you love her 
E|---------------------------------------------------------------------------|

e|----------------------------------------------------------------------| BRIDGE  
B|---3-12-10-7-5-3------10-7---3-12-10-7-5-3----------------------------|
G|----------------------------------------------------------------------| Ooh ooh ooh ooh ooh ooh/
D|----------------------------------------------------------------------| Ooh ooh, ooh ooh ooh ooh ooh ooh 
A|----------------------------------------------------------------------|
E|----------------------------------------------------------------------|

e|----------------------------------------------------------------------| VERSE 3 
B|---3-5-7-5-3-0---5-7-5-3-0---------5-7-5-3-0---5-7-5-3-3--------------|
G|---------------------------2---2-------------------------2-2---2------| When she says she needs you, tell
D|----------------------------------------------------------------------| her you need her too/You tell her 
A|----------------------------------------------------------------------| clearly, speak what your heart 
E|----------------------------------------------------------------------| wants you too 

e|----------------------------------------------------------------------|  
B|---5-7-5-3-0---7-7-10-10-12-7-5-3---3-5-7-5-3-0---5-7-5-3-0-----------|
G|------------------------------------------------------------2---2-----| Tell her she's lovely, always tell 
D|----------------------------------------------------------------------| her the truth/When she says she 
A|----------------------------------------------------------------------| loves you, tell her you love her 
E|----------------------------------------------------------------------| too 

e|----------------------------------------------------------------------| CHORUS
B|---3-5-3---10-12-12-10-12-12---10-12-10-7-5---------------------------|
G|----------------------------------------------------------------------| But please don't runaway, runaway,
D|----------------------------------------------------------------------| when you get tired 
A|----------------------------------------------------------------------|
E|----------------------------------------------------------------------|

e|----------------------------------------------------------------------| 
B|---7-5-3---10-12-12-10-12-12---10-12-10-7-8-7-5-----------------------|
G|----------------------------------------------------------------------| Cause this will slip away, slip
D|----------------------------------------------------------------------| away and start a fire 
A|----------------------------------------------------------------------|
E|----------------------------------------------------------------------|

e|----------------------------------------------------------------------|   
B|---3-8-7-0-0-0-3-5-7---0-8-7-0-0-0-10-7-------------------------------|
G|----------------------------------------------------------------------| Ooh,that can never be put out,ooh 
D|----------------------------------------------------------------------| hurry time is running out 
A|----------------------------------------------------------------------|
E|----------------------------------------------------------------------|

e|----------------------------------------------------------------------|   
B|---7-5-3---10-12-12-10-12-12---10-12-10-7-5---3-8-7-------------------|
G|----------------------------------------------------------------------| But don't you runaway,runaway, 
D|----------------------------------------------------------------------| before you tell her,you love her
A|----------------------------------------------------------------------|
E|----------------------------------------------------------------------|

e|----------------------------------------------------------------------| OUTRO 
B|---3-12-10-7-5-3------10-7---3-12-10-7-5-3----------------------------|
G|----------------------------------------------------------------------| Ooh ooh ooh ooh ooh ooh/
D|----------------------------------------------------------------------| Ooh ooh, ooh ooh ooh ooh ooh ooh
A|----------------------------------------------------------------------|
E|----------------------------------------------------------------------|

e|----------------------------------------------------------------------|  
B|---8-8-8-10-7---3-12-10-7-5-3------10-7---3-12-10-7-5-3---------------|
G|----------------------------------------------------------------------| You love her,ooh ooh ooh ooh ooh
D|----------------------------------------------------------------------| ooh/Ooh ooh, ooh ooh ooh ooh ooh 
A|----------------------------------------------------------------------| ooh 
E|----------------------------------------------------------------------|


************************************

|-      No Pause 
|---    Slight Pause 
|------ Longer Pause 

************************************

            
            
Suggest correction
Creating personal tab
Creating personal tab
You can edit any tab online and save it as your Personal.

You can edit, replace or remove any tab part or add personal notes – all changes will be seen only by you.

Personal tabs can be accessed anytime from any device, even offline.
Learn more »
comments
print report bad tab
2 comments total.
0 reply
csanto 57 Jan 09, 2016 11:52 AM

Lack of accuracy. the notes themselves seem right but its not how the original is played. most like played with other chord variations

guest
You may want to rate the tab now too:
select rating
Wanna post a correction for this tab? Suggest correction