Oops, an error
Loading. Please wait.

Were Not Alone tab

242 views 1 this week
no commentswrite comment
1 2 3 4 5
3 more votes to show rating
add to favorites
×
Save as Personal and add changes to this tab that will be seen only by you. Learn more ›
×
You can save this tab as Personal to edit and correct it or add notes. All changes will be seen only by you. Learn more »
launch autoscroll
font size
0
reset
how to read this tab
guitar tuner
edit
Autoscroll
slow
fast
+/-
esc
set tempo
stop
-------------------------------------------------------------------------------
                             We're Not Alone - Echosmith 
-------------------------------------------------------------------------------
Tabbed by:Mark Donohue 
E-mail:mwdonohue97@gmail.com

Tuning:Standard 

e|---------------------------------------------------------------------------| Verse 1 
B|-----------6-----9-9-9-9-6-9-11-------------6---6-9-9-6-9-11---------------|
G|---8-8-8-6-----6----------------8-8-6---8-6------------------8-8-10--------| Oh,this don't feel right/
D|---------------------------------------------------------------------------| In fact it feels like things 
A|---------------------------------------------------------------------------| are escalating/Just last 
E|---------------------------------------------------------------------------| night/I heard talks of a new 
                                                                               beginning    

e|---------------------------------------------------------------------------| Verse 1 
B|---6-6-6-6-7-6-6-----6-6-6-7-6-6-------------------------------------------|
G|-------------------------------------8-6-6---------------------------------| And this is getting out of 
D|-----------------8---------------8-6---------------------------------------| hand/And I'm sure you 
A|---------------------------------------------------------------------------| understand,that we can't stay
E|---------------------------------------------------------------------------|

e|---------------------------------------------------------------------------| Chorus 
B|-------6-----------6-------------------------------6-----------------------|
G|---8-8-----6---6h8-----8-8-8-6-8-6-6---6-8-8-6-6-8-------------------------| Tonight we'll dream to a 
D|---------8---8---------------------------------------8-6-------------------| better cause/Stand straight 
A|---------------------------------------------------------------------------| for the crooked ones/We'll 
E|---------------------------------------------------------------------------| set out,and see how far we go

e|---------------------------------------------------------------------------| Chorus 
B|-------6-----------6---------------------------------7/9-6-----------------|
G|---8-8-----6---6h8-----8-8-8-6-8-6-6---8-8-8-8-6-6-8-----------------------| And we'll live life in a 
D|---------8---8-------------------------------------------------------------| different life/Steadfast 
A|---------------------------------------------------------------------------| through the darkest night/
E|---------------------------------------------------------------------------| Keep our heads up and eyes 
                                                                               fixed on the road 

e|---------------------------------------------------------------------------| Chorus 
B|-------6---------------6---------6---------------6-------------------------|
G|---8-8-------------8-8-------8-8-------------8-8---------------------------| We're not alone,we're not 
D|---------8\6-4-6/8-------6---------8\6-4-6/8-------6-----------------------| alone/We're not alone,we're 
A|---------------------------------------------------------------------------| not alone 
E|---------------------------------------------------------------------------|

e|---------------------------------------------------------------------------| Verse 2 
B|---------6-----9-9-9-9-6-9-11-------------6-----9-9-9-6-9-11---------------|
G|---8-8-6-----6----------------8-8-6---8-6-----6--------------8-8-10--------| Since we've been gone/It's 
D|---------------------------------------------------------------------------| getting harder for us to 
A|---------------------------------------------------------------------------| remember/Where we're from/
E|---------------------------------------------------------------------------| Cause since we left things are 
                                                                               moving faster 

e|---------------------------------------------------------------------------| Verse 2 
B|---6-6-6-6-6-6-6-----6-6-6-6-6---------------------------------------------|
G|-------------------------------------8-6-6---------------------------------| And now we're closer to the 
D|-----------------8-------------8-6-6---------------------------------------| sky/When we see the sun rise,
A|---------------------------------------------------------------------------| we'll be on our way 
E|---------------------------------------------------------------------------|

e|---------------------------------------------------------------------------| Chorus 
B|-------6-----------6-------------------------------6-----------------------|
G|---8-8-----6---6h8-----8-8-8-6-8-6-6---6-8-8-6-6-8-------------------------| Tonight we'll dream to a 
D|---------8---8---------------------------------------8-6-------------------| better cause/Stand straight 
A|---------------------------------------------------------------------------| for the crooked ones/We'll 
E|---------------------------------------------------------------------------| set out,and see how far we go

e|---------------------------------------------------------------------------| Chorus 
B|-------6-----------6---------------------------------7/9-6-----------------|
G|---8-8-----6---6h8-----8-8-8-6-8-6-6---8-8-8-8-6-6-8-----------------------| And we'll live life in a 
D|---------8---8-------------------------------------------------------------| different life/Steadfast 
A|---------------------------------------------------------------------------| through the darkest night/
E|---------------------------------------------------------------------------| Keep our heads up and eyes 
                                                                               fixed on the road 

e|---------------------------------------------------------------------------| Chorus 
B|-------6---------------6---------6---------------6-------------------------|
G|---8-8-------------8-8-------8-8-------------8-8---------------------------| We're not alone,we're not 
D|---------8\6-4-6/8-------6---------8\6-4-6/8-------6-----------------------| alone/We're not alone,we're 
A|---------------------------------------------------------------------------| not alone 
E|---------------------------------------------------------------------------|

e|---------------------------------------------------------------------------| Verse 3 
B|---6-6-9-9---6-6-----6-------6-6-9-9---6---6-------------------------------|
G|-----------------8-8---8-6---------------8---8-6---------------------------| Oh keep it up/It's only 
D|-------------------------------------------------8-------------------------| getting better/Oh carry on/
A|---------------------------------------------------------------------------| And just remember to
E|---------------------------------------------------------------------------|

e|---------------------------------------------------------------------------| Verse 3 
B|-----7-9--------------7-9--------------------------------------------------|
G|---------6-5-8/10---------6-5-5-8/10-8-6-----------------------------------| Oh keep your head up now/
D|---6----------------6------------------------------------------------------| And lift your feet off the 
A|---------------------------------------------------------------------------| ground 
E|---------------------------------------------------------------------------|

 e|--------------------------------------------------------------------------| Chorus 
B|-------6-----------6-------------------------------6-----------------------|
G|---8-8-----6---6h8-----8-8-8-6-8-6-6---6-8-8-6-6-8-------------------------| Tonight we'll dream to a 
D|---------8---8---------------------------------------8-6-------------------| better cause/Stand straight 
A|---------------------------------------------------------------------------| for the crooked ones/We'll 
E|---------------------------------------------------------------------------| set out,and see how far we go

e|---------------------------------------------------------------------------| Chorus 
B|-------6-----------6---------------------------------7/9-6-----------------|
G|---8-8-----6---6h8-----8-8-8-6-8-6-6---8-8-8-8-6-6-8-----------------------| And we'll live life in a 
D|---------8---8-------------------------------------------------------------| different life/Steadfast 
A|---------------------------------------------------------------------------| through the darkest night/
E|---------------------------------------------------------------------------| Keep our heads up and eyes 
                                                                               fixed on the road 

e|---------------------------------------------------------------------------| Chorus 
B|-------6---------------6---------6---------------6-------------------------|
G|---8-8-------------8-8-------8-8-------------8-8---------------------------| We're not alone,we're not 
D|---------8\6-4-6/8-------6---------8\6-4-6/8-------6-----------------------| alone/We're not alone,we're 
A|---------------------------------------------------------------------------| not alone 
E|---------------------------------------------------------------------------|

e|---------------------------------------------------------------------------| Chorus 
B|-------6---------------6---------------------------------------------------|
G|---8-8-------------8-8-----------------------------------------------------| We're not alone,we're not 
D|---------8\6-4-6/8-------6-------------------------------------------------| alone 
A|---------------------------------------------------------------------------| 
E|---------------------------------------------------------------------------|

************************************

Key:

| /    Slide up
| \    Slide down
| h    Hammer-on
| -    No pause 
| ---  Pause 

************************************

            
            
Suggest correction
Creating personal tab
Creating personal tab
You can edit any tab online and save it as your Personal.

You can edit, replace or remove any tab part or add personal notes – all changes will be seen only by you.

Personal tabs can be accessed anytime from any device, even offline.
Learn more »
Give kudos to tab author, rate the tab!
1 2 3 4 5
comments
print report bad tab
guest
You may want to rate the tab now too:
select rating
Wanna post a correction for this tab? Suggest correction