Oops, an error
Loading. Please wait.

My Heaven Tab

262 views 1 this week
no commentswrite comment
1 2 3 4 5
please rate
add to favorites
launch autoscroll
font size
0
reset
how to read this tab
guitar tuner
Autoscroll
slow
fast
+/-
esc
set tempo
stop
Help us to improve Ultimate-Guitar.com Take our survey!
×
Author
Difficulty
advanced
-------------------------------------------------------------------------------
                             "My Heaven" from ECHOVALVE
-------------------------------------------------------------------------------
Tabbed by:EV6STRINGS
Email:JAY@ECHOVALVE.COM

Tuning:LOW TO HIGH....C#,G#,C#,F#,Bb,Eb

I recorded two different guitars on this...mathieu plays the rhythm live
rhythm guitar/intro and verse...listen for the timing on the changes.
        1st time                        2nd time   alternate them..
e|---------------------------------------------------------------|
B|----------------------------------------------------3----------|
G|---6------4-----7/9--11-------------6-----4---7/9---2----------|
D|---4------2-----5/7--9--------------4-----2---5/7---0----------|
A|---4------2-----5/7--9--------------4-----2---5/7---0----------|
E|---4------2-----5/7--9--------------4-----2---5/7---0----------|

this is the lead line......

e|------5----5--- 7----5---0-----4---4---4~~~~~~----3----3---|
B|----7----7--- 7---7---7---7--7---7---7----------5----5-----|
G|--6----6--- 6------6---6---6----6---6---------0----0-------|
D|-----------------------------------------------------------|
A|-----------------------------------------------------------|
E|-----------------------------------------------------------|
                                                 (every other time)
e|------5----3-----0-------2----2----5/7~~~----------2~-------------|
B|----5---5----5-----5---5----5----5---------------5----------------|
G|--0------0-----0-----4----4----4---------------4------------------|
D|------------------------------------------------------------------|
A|------------------------------------------------------------------|
E|------------------------------------------------------------------|

chorus rhythm track                                  (repeat)
again...find the rhythm..just posted note changes.
e|----------------------------------------------------------------------|
B|-------------------------------2--------------------------------------|
G|--5--------3---7/9--9\7----7---0---4----9/12\11-----------------------|
D|--5---h9-x-5---x-x--x-x--0-5---0---2----x-x--x------------------------|
A|--7---h9-x-5---5/7--7\5--0-3---0---2----7/10\9------------------------|
E|--7---h9-x-5-------------------0---2----------------------------------|

lead track over chorus rhythm
     (5 times)           (4 times)
e|-------15--------------8p7---------8p7-8/10-10~-10/12-----------------|
B|-12h13--------12\10~-------10-----------------------------------------|
G|----------------------------------------------------------------------|
D|----------------------------------------------------------------------|
A|----------------------------------------------------------------------|
E|----------------------------------------------------------------------|

end chorus lead into breakdown...
    x's 5      x's 3
e|--7-----------12------------------------------------------------------|
B|--10(b)12-----15(b)17-------------------------------------------------|
G|----------------------------------------------------------------------|
D|----------------------------------------------------------------------|
A|----------------------------------------------------------------------|
E|----------------------------------------------------------------------|

break down...
                (3 times)                     last time
e|----------------------------------------------------------------------|
B|------------------------------------------------3---------------------|
G|---------------------------------------------7--2--4------------------|
D|--12--12p11--11h12--5-5-5/7--7h9-9--9h11-----5--0--2------------------|
A|--9---9------9------5-5-5/7--7---7--7--------3--0--2------------------|
E|--9---9------9------5-5-5/7--7---7--7-----------0--2------------------|

e|---------------------------------------------------------------------|
B|---------------------------------------------------------------------|
G|---------------------------------------------------------------------|
D|---------------------------------------------------------------------|
A|---------------------------------------------------------------------|
E|---------------------------------------------------------------------|


| /  slide up
| \  slide down
| h  hammer-on
| p  pull-off
| ~  vibrato
| +  harmonic
| x  Mute note
===============================================================================
Suggest correction
Give kudos to tab author, rate the tab!
1 2 3 4 5
comments
print report bad tab
guest
You may want to rate the tab now too:
select rating
Wanna post a correction for this tab? Suggest correction