Oops, an error
Loading. Please wait.

Razorblades And Bandaids Tab

339 views 1 this week
no commentswrite comment
1 2 3 4 5
please rate
add to favorites
launch autoscroll
font size
0
reset
how to read this tab
guitar tuner
Tab Pro tools
  • play this tab
  • loop segment
  • change instrument
  • show fretboard
  • metronome
×
Best way to learn
"Razorblades And Bandaids"
Autoscroll
slow
fast
+/-
esc
set tempo
stop
Song: Razorblades and Bandaids
Artist: Econoline Crush
Album: The Devil You Know
As tabbed by Joe Muggah 


Intro A (Guitar 1)
e-----------------------12---------------12------------
B-14^-(x6)-14^\13-13-13----13-11^--11-13----13-13-(x6)-
G------------------------------------------------------
D------------------------------------------------------
A------------------------------------------------------
E------------------------------------------------------

(contined)
e-----------------------12----------------12-----------
B-14^-(x4)-14^\13-13-13----13-11^---11-13----13--------
G------------------------------------------------------
D------------------------------------------------------
A------------------------------------------------------
E------------------------------------------------------

Intro B (Guitar 2)
e------------------------------------------------------
B------------------------------------------------------
G-----------------5-----------------------5------------
D-3-------6-------5-------3-------6-------5------------
A-3-(x8)--6-(x8)--3-(x8)--3-(x8)--6-(x8)--3------------
E-1-------4---------------1-------4--------------------

Verse A (Guitar 2, acoustic strumming)
e-0-------3-------3------p0-------0--------------------
B-0-------3-------3-------3-------2--------------------
G-0-(x8)--0-(x8)--0-(x5)--0-(x3)--2-(x8)---------------
D-2-------0-------2-------2-------2--------------------
A-2-------2-------3-------3-------0--------------------
E-0-------3--------------------------------------------
("You'd think that you'd notice...")

Verse B (Guitar 1)              end on
e------0-----0---------0-----0-|-----------------------
B-8----1-----2----8----1-----2-|-----------------------
G------0-----2---------0-----2-|-8-8-8-8-8-8-8/10^-10^-
D------2-----2---------2-----2-|-7-7-7-7-7-7-7/-8^--9^-
A------3-----0---------3-----0-|-----------------------
E------------------------------|-----------------------

Pre-Chorus A (Guitar 2)
e------------------------------------------------------
B------------------------------------------------------
G-5--------------------------5-------------------------
D-5-(x8)--5-(x8)--2--(x16)---5-(x8)--5-(x8)--2-(x16)---
A-3-------5-------2----------3-------5-------2---------
E---------3-------0------------------3-------0---------
("I miss you more than...")

Pre-Chorus B (Guitar 1)
e-17---15------17---15------17---15------17---15-------
B------------------------------------------------------
G------------------------------------------------------
D------------------------------------------------------
A------------------------------------------------------
E------------------------------------------------------

Chorus A (Guitar 2)               end on
e--------------------------------|---------------------
B--------------------------------|---------------------
G-----------------5-------2------|-----------------5---
D-3-(x8)--6-(x8)--5-(x8)--2-(x8)-|-3-(x8)--6-(x8)--5---
A-3-------6-------3-------0------|-3-------6-------3---
E-1-------4----------------------|-1-------4-----------
("Did you think this...")

Chorus B (Guitar 1)
e------------------------------------------------------
B-4-----------4-----------5------------5---------------
G-----5-----------5-----------5---3--------5--3--------
D---------6-----------6--------------------------------
A------------------------------------------------------
E------------------------------------------------------

Fill
e------------------------------------------------------
B-14^-14^-14^-14^-14^-14^-14^\13-----------------------
G------------------------------------------------------
D------------------------------------------------------
A------------------------------------------------------
E------------------------------------------------------

Bridge A (Guitar 2)
e------------------------------------------------------
B------------------------------------------------------
G-5--------------9-x-9-x-9-x------9-x-9-x-9-x----------
D-5-(x8)--5-(x8)-x-x-x-x-x-x-9-9--x-x-x-x-x-x-9-9------
A-3-------5------7-x-7-x-7-x-x-x--7-x-7-x-7-x-x-x------
E---------3------------------7-7--------------7-7------

Bridge B (Guitar 1)
e------12----------------------------------------------
B-13------13----------13-15-12---12--12-12-12-13^------
G------------12----12----------------------------------
D------------------------------------------------------
A------------------------------------------------------
E------------------------------------------------------

Intro A, B
Verse A, B
Pre-Chorus A, B
Chorus A, B
Verse A, B
Pre-Chorus A, B
Chorus A, B
Bridge A, B
Chorus A, B

Another good, but depressing tune.
comments
We did not receive enough feedback on this tab! Please rate:
print report bad tab
1 2 3 4 5
I want to post or [tab]
guest
You may want to rate the tab now too:
select rating
Please do not post tabs as comments. Select "correction" instead!