Oops, an error
Loading. Please wait.

Annette bass

22 views 1 this week
no commentswrite comment
1 2 3 4 5
3 more votes to show rating
add to favorites
×
Save as Personal and add changes to this tab that will be seen only by you. Learn more ›
×
You can save this tab as Personal to edit and correct it or add notes. All changes will be seen only by you. Learn more »
launch autoscroll
font size
0
reset
guitar tuner
edit
Autoscroll
slow
fast
+/-
esc
set tempo
stop
[Intro]   **(first 2 bars are guitar only)**

G|-------7----------4-4-4-2---2-|-------7----------4-4-4-2---2-|
D|--------------------------4---|--------------------------4---|
A|-5-------------2--------------|-5-------------2--------------|
E|------------------------------|------------------------------|

[Verse]
("I can't forget when I first saw Annette...")
G|-------7----------4-4-4-2---2-|-------7----------4-4-4-2---2-|
D|--------------------------4---|--------------------------4---|
A|-5-------------2--------------|-5-------------2--------------|
E|------------------------------|------------------------------|

G|-------7----------4-4-4-2---2-|-------7----------4-4-4-2---2-|
D|--------------------------4---|--------------------------4---|
A|-5-------------2--------------|-5-------------2--------------|
E|------------------------------|------------------------------|

[Chorus]
("Oh Annette you're the girl for me...")
G|-------------------------------------------------------------------|
D|-5-5-5-5-5-5-5-5--7-7-7-7-7-7-7-7----------------------------------|
A|----------------------------------5-5-5-5-5-5-5-5--2-2-2-2-2-2-2-2-|
E|-------------------------------------------------------------------|

G|-------------------------------------------------------------------|
D|-5-5-5-5-5-5-5-5--7-7-7-7-7-7-7-7----------------------------------|
A|----------------------------------5---5---5---5----2---2-2-2-2-2-2-|
E|-------------------------------------------------------------------|

[Verse]
("It's too bad Skippy gives me zits...")
G|-------7----------4-4-4-2---2-|-------7----------4-4-4-2---2-|
D|--------------------------4---|--------------------------4---|
A|-5-------------2--------------|-5-------------2--------------|
E|------------------------------|------------------------------|

G|-------7----------4-4-4-2---2-|-------7----------4-4-4-2---2-|
D|--------------------------4---|--------------------------4---|
A|-5-------------2--------------|-5-------------2--------------|
E|------------------------------|------------------------------|

[Chorus]
("Oh Annette you're the girl for me...")
G|-------------------------------------------------------------------|
D|-5-5-5-5-5-5-5-5--7-7-7-7-7-7-7-7----------------------------------|
A|----------------------------------5-5-5-5-5-5-5-5--2-2-2-2-2-2-2-2-|
E|-------------------------------------------------------------------|

G|-------------------------------------------------------------------|
D|-5-5-5-5-5-5-5-5--7-7-7-7-7-7-7-7----------------------------------|
A|----------------------------------5---5---5---5----2---2-2-2-2-2-2-|
E|-------------------------------------------------------------------|

[Verse]
G|-------7----------4-4-4-2---2-|-------7----------4-4-4-2---2-|
D|--------------------------4---|--------------------------4---|
A|-5-------------2--------------|-5-------------2--------------|
E|------------------------------|------------------------------|

("My tv's off, it's time to sleep...")
G|-------7----------4-4-4-2---2-|-------7----------4-4-4-2---2-|
D|--------------------------4---|--------------------------4---|
A|-5-------------2--------------|-5-------------2--------------|
E|------------------------------|------------------------------|

G|-------7----------4-4-4-2---2-|-------7----------4-4-4-2---2-|
D|--------------------------4---|--------------------------4---|
A|-5-------------2--------------|-5-------------2--------------|
E|------------------------------|------------------------------|

[Chorus]
("Oh Annette you're the girl for me...")
G|-------------------------------------------------------------------|
D|-5-5-5-5-5-5-5-5--7-7-7-7-7-7-7-7----------------------------------|
A|----------------------------------5-5-5-5-5-5-5-5--2-2-2-2-2-2-2-2-|
E|-------------------------------------------------------------------|

G|-------------------------------------------------------------------|
D|-5-5-5-5-5-5-5-5--7-7-7-7-7-7-7-7----------------------------------|
A|----------------------------------5---5---5---5----2---2-2-2-2-2-2-|
E|-------------------------------------------------------------------|

[Final Verse]
("Well Annette you know you'll always be the rage...")
G|-------7----------4-4-4-2---2-|-------7----------4-4-4-2---2-|
D|--------------------------4---|--------------------------4---|
A|-5-------------2--------------|-5-------------2--------------|
E|------------------------------|------------------------------|

G|-------7----------4-4-4-2---2-|-------7----------4-4-4-2---2-|
D|--------------------------4---|--------------------------4---|
A|-5-------------2--------------|-5-------------2--------------|
E|------------------------------|------------------------------|

("When I see you on my set I'm in another land...")
G|----------------------------------|----------------------------------|
D|----------------------------------|----------------------------------|
A|-5-5-5-5-5-5-5-5--2-2-2-2-2-2-2-2-|-5-5-5-5-5-5-5-5--2-2-2-2-2-2-2-2-|
E|----------------------------------|----------------------------------|

G|----------------------------------|----------------------------------|
D|----------------------------------|----------------------------------|
A|-5-5-5-5-5-5-5-5--2-2-2-2-2-2-2-2-|-5-5-5-5-5-5-5-5--2-2-2-2-2-2-2-2-|
E|----------------------------------|----------------------------------|

[Chorus/Outro]
G|-------------------------------------------------------------------|
D|-5-5-5-5-5-5-5-5--7-7-7-7-7-7-7-7----------------------------------|
A|----------------------------------5-5-5-5-5-5-5-5--2-2-2-2-2-2-2-2-|
E|-------------------------------------------------------------------|

G|-------------------------------------------------------------------|
D|-5-5-5-5-5-5-5-5--7-7-7-7-7-7-7-7----------------------------------|
A|----------------------------------5-5-5-5-5-5-5-5--2-2-2-2-2-2-2-2-|
E|-------------------------------------------------------------------|

G|-------------------------------------------------------------------|
D|-5-5-5-5-5-5-5-5--7-7-7-7-7-7-7-7----------------------------------|
A|----------------------------------5-5-5-5-5-5-5-5--2-2-2-2-2-2-2-2-|
E|-------------------------------------------------------------------|

G|-------------------------------------------------------------------|
D|-5-5-5-5-5-5-5-5--7-7-7-7-7-7-7-7----------------------------------|
A|----------------------------------5-5-5-5-5-5-5-5--2-2-2-2-2-2-2-2-|
E|-------------------------------------------------------------------|

("Well Annette you're the girl for me...")
G|-------------------------------------------------------------------|
D|-5-5-5-5-5-5-5-5--7-7-7-7-7-7-7-7----------------------------------|
A|----------------------------------5-5-5-5-5-5-5-5--2-2-2-2-2-2-2-2-|
E|-------------------------------------------------------------------|

G|-------------------------------------------------------------------|
D|-5-5-5-5-5-5-5-5--7-7-7-7-7-7-7-7----------------------------------|
A|----------------------------------5---5---5---5----2---2---2---2---|
E|-------------------------------------------------------------------|

G|-------------------------------------------------------------------|
D|-5-5-5-5-5-5-5-5--7-7-7-7-7-7-7-7----------------------------------|
A|----------------------------------5-5-5-5-5-5-5-5--2-2-2-2-2-2-2-2-|
E|-------------------------------------------------------------------|

("Why did you have to get so old...")
G|-------------------------------------------------------------------------------|
D|-5-5-5-5-5-5-5-5--7-7-7-7-7-7-7-7----------------------------------------------|
A|----------------------------------5--5--5---2--2--2-------------0--0--0---5----|
E|------------------------------------------------------3--3--3------------------|

            
            
Suggest correction
Creating personal tab
Creating personal tab
You can edit any tab online and save it as your Personal.

You can edit, replace or remove any tab part or add personal notes – all changes will be seen only by you.

Personal tabs can be accessed anytime from any device, even offline.
Learn more »
Give kudos to tab author, rate the tab!
1 2 3 4 5
comments
print report bad tab
guest
You may want to rate the tab now too:
select rating
Wanna post a correction for this tab? Suggest correction