Oops, an error
Loading. Please wait.

Brain Dead Baby bass

19 views 1 this week
no commentswrite comment
1 2 3 4 5
3 more votes to show rating
add to favorites
×
Save as Personal and add changes to this tab that will be seen only by you. Learn more ›
×
You can save this tab as Personal to edit and correct it or add notes. All changes will be seen only by you. Learn more »
launch autoscroll
font size
0
reset
guitar tuner
edit
Autoscroll
slow
fast
+/-
esc
set tempo
stop
[Intro]
G|----------------------------------------------------|
D|-4-4-4----------------------4-4-4--------------6-5--|
A|-------4-4-4--2-2-2--4-4-4--------4-4-4--6-6-6------|
E|----------------------------------------------------|

[Verse]
("I Remember When I First Met Ya...")
G|----------------------------------------------------|----------------------------------------------------|
D|-4-4-4----------------------4-4-4--------------6-5--|-4-4-4----------------------4-4-4--------------6-5--|
A|-------4-4-4--2-2-2--4-4-4--------4-4-4--6-6-6------|-------4-4-4--2-2-2--4-4-4--------4-4-4--6-6-6------|
E|----------------------------------------------------|----------------------------------------------------|

("They Said It Was An Accident, You Didn't See The Red Light...")
G|------------------------------------------------------------------|
D|-4-4-4-4-4-4-4-4-------------------4-4-4-4-4-4-4--6-6-6-6-6-6-6-6-|
A|-----------------2-2-2-2-2-2-2-2-2--------------------------------|
E|------------------------------------------------------------------|

("They Said You Need An Operation And Intensive Care...") 
G|-------------------------------------------------------------------|
D|-4-4-4-4-4-4-4-4---------------------------------------------------|
A|-----------------2-2-2-2-2-2-2-2-2--6-6-6-6-6-6-6-6--4-4-4-4-4-4-4-|
E|-------------------------------------------------------------------|

[Verse]
("They Laid You Out On The O.R. Table...")
G|----------------------------------------------------|----------------------------------------------------|
D|-4-4-4----------------------4-4-4--------------6-5--|-4-4-4----------------------4-4-4--------------6-5--|
A|-------4-4-4--2-2-2--4-4-4--------4-4-4--6-6-6------|-------4-4-4--2-2-2--4-4-4--------4-4-4--6-6-6------|
E|----------------------------------------------------|----------------------------------------------------|

("They Tried To Save Your Frontal Lobes But It Was Too Late...")
G|------------------------------------------------------------------|
D|-4-4-4-4-4-4-4-4-------------------4-4-4-4-4-4-4--6-6-6-6-6-6-6-6-|
A|-----------------2-2-2-2-2-2-2-2-2--------------------------------|
E|------------------------------------------------------------------|

("They Sewed You Back Together, Everything Fit -Your Brain May Be Dead But Your Body Won't QUIT!")
G|-------------------------------------------------------------------|
D|-4-4-4-4-4-4-4-4---------------------------------------------------|
A|-----------------2-2-2-2-2-2-2-2-2--6----------------4-------------|
E|-------------------------------------------------------------------|

[Verse]
("Ever Since That Day We've Been Inseparable...")
G|----------------------------------------------------|----------------------------------------------------|
D|-4-4-4----------------------4-4-4--------------6-5--|-4-4-4----------------------4-4-4--------------6-5--|
A|-------4-4-4--2-2-2--4-4-4--------4-4-4--6-6-6------|-------4-4-4--2-2-2--4-4-4--------4-4-4--6-6-6------|
E|----------------------------------------------------|----------------------------------------------------|

("But I'm Not Gonna Let Them Get Near The Plug...")
G|------------------------------------------------------------------|
D|-4-4-4-4-4-4-4-4-------------------4-4-4-4-4-4-4--6-6-6-6-6-6-6-6-|
A|-----------------2-2-2-2-2-2-2-2-2--------------------------------|
E|------------------------------------------------------------------|

("Why Won't They Just Let Us Be, So We Can Raise A Brain Dead Family"
G|-------------------------------------------------------------------|
D|-4-4-4-4-4-4-4-4---------------------------------------------------|
A|-----------------2-2-2-2-2-2-2-2-2--6-6-6-6-6-6-6-6--4-4-4-4-4-4-4-|
E|-------------------------------------------------------------------|

[Outro]
("We're Gonna Raise A Brain Dead Family...")
G|----------------------------------------------------|----------------------------------------------------|
D|-4-4-4----------------------4-4-4--------------6-5--|-4-4-4----------------------4-4-4--------------6-5--|
A|-------4-4-4--2-2-2--4-4-4--------4-4-4--6-6-6------|-------4-4-4--2-2-2--4-4-4--------4-4-4--6-6-6------|
E|----------------------------------------------------|----------------------------------------------------|

(BASS ONLY)
G|----------------------------------------------------|----------------------------------------------------|
D|-4-4-4----------------------4-4-4--------------6-5--|-4-4-4----------------------4-4-4--------------6-5--|
A|-------4-4-4--2-2-2--4-4-4--------4-4-4--6-6-6------|-------4-4-4--2-2-2--4-4-4--------4-4-4--6-6-6------|
E|----------------------------------------------------|----------------------------------------------------|

("We're Gonna Raise A Brain Dead Family...")
G|----------------------------------------------------|----------------------------------------------------|
D|-4-4-4----------------------4-4-4--------------6-5--|-4-4-4----------------------4-4-4--------------6-5--|
A|-------4-4-4--2-2-2--4-4-4--------4-4-4--6-6-6------|-------4-4-4--2-2-2--4-4-4--------4-4-4--6-6-6------|
E|----------------------------------------------------|----------------------------------------------------|

End on
G|-------|
D|-4-----|
A|-------|
E|-------|
Suggest correction
Creating personal tab
Creating personal tab
You can edit any tab online and save it as your Personal.

You can edit, replace or remove any tab part or add personal notes – all changes will be seen only by you.

Personal tabs can be accessed anytime from any device, even offline.
Learn more »
Give kudos to tab author, rate the tab!
1 2 3 4 5
comments
print report bad tab
guest
You may want to rate the tab now too:
select rating
Wanna post a correction for this tab? Suggest correction