Oops, an error
Loading. Please wait.

A Friend Too Few tab

43 views 1 this week
no commentswrite comment
1 2 3 4 5
3 more votes to show rating
add to favorites
×
Save as Personal and add changes to this tab that will be seen only by you. Learn more ›
×
You can save this tab as Personal to edit and correct it or add notes. All changes will be seen only by you. Learn more »
launch autoscroll
font size
0
reset
how to read this tab
guitar tuner
edit
Autoscroll
slow
fast
+/-
esc
set tempo
stop
[Intro]

    G                 F#/G            Em
e|--3---------3-----|--2--------2----|--0---------0-----|------0------3------|----------|
B|------0-----------|-----0----------|------0-----------|--3-----------------|----------|
G|------------------|----------------|------------------|--------------------|----------|
D|------0--------0--|-----0-------0--|------2--------2--|------2--------2----|----------|
A|------------------|----------------|------------------|--------------------|----------|
E|--3-------3-------|--2------2------|--0-------0-------|--0--------0--------|----------|

    C                   B/C                Am                 D7sus4
e|------------------|---------------------|-------------------|--3------------2--------|
B|--1---------------|----1----------------|--1----------1-----|----------1---------1---|
G|-------------0----|----------------0----|--------0----------|-------2----------2-----|
D|------2---------2-|---------0--------0--|------2---------2--|--0---------0-----------|
A|--3--------3------|----2---------2------|--0--------0-------|------------------------|
E|------------------|---------------------|-------------------|------------------------|


e|--3---------3/5---|--2--------2----|--0---------0-----|------0------3----|------------|
B|------0-----------|-----0----------|------0-----------|--3---------------|------------|
G|------------------|----------------|------------------|------------------|------------|
D|------0-----------|-----0-------0--|------2--------2--|------2--------2--|------------|
A|------------------|----------------|------------------|------------------|------------|
E|--3-------3-------|--2------2------|--0-------0-------|--0--------0------|------------|


e|------------------|--------------------|--------------------|--3------------2--------|
B|--1---------------|----1---------------|---1----------1-----|----------1---------1---|
G|-------------0----|----------------0---|---------0----------|-------2----------2-----|
D|------2---------2-|---------0--------0-|-------2---------2--|--0---------0-----------|
A|--3--------3------|----2---------2-----|---0--------0-------|------------------------|
E|------------------|--------------------|--------------------|------------------------|

[Verse]

G              F#/G       Em
You're halfway around the world
C           B/C        Am       D7sus4
I hope you found your place my girl
G              F#/G       Em
You've got a fellow down there
C     B/C   Am      D7sus4
Good god he best take care of you


G           F#/G       Em
A star of night in your eye
C               B/C        Am       D7sus4
Brings out the light in your glowing face
G        F#/G       Em
I'll be asking the sky
C        B/C      Am     D7sus4        G    G/C
Did I let this friendship go to waste


[Chorus]

Dm7          Am
In all my days
Bb                   F
I never thought I'd miss you like I do
Dm7        Am    Cm       D7sus4  D7
In all my days, I'll forever go through
C            D7
A friend too few


[Verse]
G         F#/G   Em
Today I'm moving on
C             B/C     Am       D7sus4
I'll hitch my things and be gone
G              F#/G       Em
It's your bags I've got to loose
C        B/C           Am      D7sus4           G     G/C
But I'll sing with my deepest thank you


[Chorus]
Dm7          Am
In all my days
Bb                   F
I never thought I'd miss you like I do
Dm7        Am   Cm           D7sus4  D7
In all my days, I'll forever go through
C            D7
A friend too few


[Bridge]

Em   F#G  G    C   B/C   Em
Em   F#G  G    C   B/C   Em


[Chorus]
Dm7          Am
In all my days
Bb                   F
I never thought I'd miss you like i do
Dm7        Am         Cm       D7sus4  D7
In all my days, I'll forever go through
C            D7
A friend too few



************************************

| /  Slide up

************************************

            
            
Suggest correction
Creating personal tab
Creating personal tab
You can edit any tab online and save it as your Personal.

You can edit, replace or remove any tab part or add personal notes – all changes will be seen only by you.

Personal tabs can be accessed anytime from any device, even offline.
Learn more »
Give kudos to tab author, rate the tab!
1 2 3 4 5
comments
print report bad tab
guest
You may want to rate the tab now too:
select rating
Wanna post a correction for this tab? Suggest correction