Oops, an error
Loading. Please wait.

In The Wintertime tab

41 views 1 this week
no commentswrite comment
1 2 3 4 5
3 more votes to show rating
add to favorites
×
Save as Personal and add changes to this tab that will be seen only by you. Learn more ›
×
You can save this tab as Personal to edit and correct it or add notes. All changes will be seen only by you. Learn more »
launch autoscroll
font size
0
reset
how to read this tab
guitar tuner
edit
Autoscroll
slow
fast
+/-
esc
set tempo
stop
Standard tuning, capo on 3

 [Intro]

     G            G/B           Cmaj7
e|---3---3--3-------------------0--0------0--0-------|
B|-------0--0-----3--3--3----0--0--0------0--0-------|
G|-------0--0--------0--0-------0--0---0--0--0-------|
D|-------0--0--------0--0-------2--2---2--2--2-------|
A|-------2--2-----2--2--2----3--3--3------3--3-------|
E|---3---3--3----------------------------------------|

     G            G/B        Am7
e|---3---3--3----------------0-----------------------|
B|-------0--0-----3--3--3----1-----------------------|
G|-------0--0--------0--0----0-----------------------|
D|-------0--0--------0--0----2--------0--------------|
A|-------2--2-----2--2--2----0--2--3-----------------|
E|---3---3--3----------------------------0--2--------|


     G            G/B           Cmaj7
e|---3---3--3-------------------0--0------0--0-------|
B|-------0--0-----3--3--3----0--0--0------0--0-------|
G|-------0--0--------0--0-------0--0---0--0--0-------|
D|-------0--0--------0--0-------2--2---2--2--2-------|
A|-------2--2-----2--2--2----3--3--3------3--3-------|
E|---3---3--3----------------------------------------|


     G    Em     C                   G
e|---3--3--------3--3---3----3--3----3---------------|
B|---0--0--0-----1--1---1----1--1----0---------------|
G|---0--0--0-----0--0---0h2--0--0----0---------------|
D|---0--0--0-----2--2---0----0--2----0---------------|
A|---2--2--2-----3--3---3----3--3----2---------------|
E|---3--3--0-------------------------3---------------|


[Verse]

G                  G/B         Cmaj7
On the edge of the water, they stepped in a cabin,
G             G/B                Am7
To wield the thought of their dreams
G            G/B                Cmaj7
But all the summer long, by the song of the wagon,
G          Em    C            G
They toyed in the soil of the stream


G                  G/B      Cmaj7
Now this woman and man, you must understand,
G              G/B         Am7
They had just twenty some years,
G             G/B              Cmaj7
But her life had left her, the wiser then after,
G           Em      C            G
You could use your granddaughters field.


G                    G/B            Cmaj7
Now the snow it has fallen, in the spoon of that valley,
G           G/B           Am7
Not a soul there is to be found
G                    G/B          Cmaj7
But her voice it'll carry, the words that will always be heard
G            Em    C         G
Through the snow fallen sound.


[Chorus]

G7              C       C/E   G
Oooo, and that woman is in my mind,
G7              C     C/E     G
Oooo, she will always be that kind,
G7                 C
Oooo, though these days they have gone,
        Cm               G
and the season move on I know,
            C             G
She'll stay warm, in the wintertime


[Verse]

G                    G/B        Cmaj7
As the months they go past, and we have not so fast,
G             G/B           Am7
Often fail to remember our times,
G              G/B          Cmaj7
Now woman hear this, you are so hard to miss,
G            Em    C         G
In the cold of the December night.


[Chorus]

G7              C       C/E   G
Oooo, and that woman is in my mind,
G7              C     C/E     G
Oooo, she will always be that kind,
G7                 C
Oooo, though these days they have gone,
        Cm               G
and the season move on I know,
            C             G
She'll stay warm, in the wintertime


G7                 C
Oooo, though these days they have gone,
        Cm               G
and the season move on I know,
            C             G
She'll stay warm, in the wintertime



************************************

| h  Hammer-on

************************************

            
            
Suggest correction
Creating personal tab
Creating personal tab
You can edit any tab online and save it as your Personal.

You can edit, replace or remove any tab part or add personal notes – all changes will be seen only by you.

Personal tabs can be accessed anytime from any device, even offline.
Learn more »
Give kudos to tab author, rate the tab!
1 2 3 4 5
comments
print report bad tab
guest
You may want to rate the tab now too:
select rating
Wanna post a correction for this tab? Suggest correction