Oops, an error
Loading. Please wait.

Let Me Me Tune My Heartstrings tab

53 views 1 this week
no commentswrite comment
1 2 3 4 5
3 more votes to show rating
add to favorites
×
Save as Personal and add changes to this tab that will be seen only by you. Learn more ›
×
You can save this tab as Personal to edit and correct it or add notes. All changes will be seen only by you. Learn more »
launch autoscroll
font size
0
reset
how to read this tab
guitar tuner
edit
Autoscroll
slow
fast
+/-
esc
set tempo
stop
Author
Difficulty
    
[Intro]
    Caug    Fmaj7                       
E-|-------|-----0-----0---------------------------|----------------------0--------------------|--
B-|-----1-|-------------------3----------1--------|----------------0-----------1--------------|--
G-|----1--|---------------------------------------|--0-----2---------------------------2------|--
D-|---2---|-----3--------3---------3-----------3--|--------3----------3--------3----------3---|--
A-|--3----|---------------------------------------|-------------------------------------------|--
E-|-------|-1-------1---------1----------1--------|---1---------1----------1--------1---------|--


     Fmaj7                                    Gm
E-|-----0-----0----------------------------|--------------------3-----------------|--
B-|-------------------3----------1---------|-------------3------------------------|--
G-|----------------------------------------|------3----------3--------------3-----|--
D-|-----3--------3---------3-----------3---|------0--------0---------0---------0--|--
A-|----------------------------------------|--------------------------------------|--
E-|-1-------1---------1----------1---------|--3--------3--------3--------3--------|--


    Gm7
E-|-----1-----1-------0-------------------|------------------------3-----------------|--
B-|------------------------------3--------|---------------3----------------3---------|--
G-|---------------------------------------|---2----3-------------3-------------3-----|--
D-|-----0--------0---------0-----------0--|--------0----------0---------0---------0--|--
A-|---------------------------------------|------------------------------------------|--
E-|-3-------3---------3----------3--------|---3---------3----------3---------3-------|--


    C                                           Fmaj7
E-|------------------------------------------|---------------------0--------------|--
B-|------1------1--------3----------3--------|---------------1----------------1---|--
G-|---------------------------------------2--|--------2-------------------2-------|--
D-|------2---------2----------2--------------|--------3--------3-------3--------3-|--
A-|--3--------3----------3----------3--------|------------------------------------|--
E-|------------------------------------------|---1---------1-------1--------1-----|--


   

Chords that are used in the chorus...
   Fmaj7  F#dim7     Gm      Fmaj7   F#dim7  Gm    Am7   A7    Dm7  Dm7*  G7
E---0-------2-------3---------0-------2------3------5-----5----5----5-----3--|
B---1-------1-------3---------1-------1------3------5-----5----6----5-----3--|
G---2-------2-------3---------2-------2------3------5-----6----5----5-----4--|
D---3-------1-------0---------3-------1------0------5-----5----7----7-----3--|
A---3-------------------------3---------------------7-----7----5----5--------|
E---1-------2-------3---------1-------2------3------5-----5---------------3--|


[Verse 1]
Fmaj7
Let me tune my heartstrings,
Fmaj7          Gm
Falling out of tune,
Gm7 
Let me tune my heartstrings,
           C                Fmaj7
So they can harmonize with you


[Verse 2]
Fmaj7
There's a time when I remembering
Fmaj7                    Gm
When the music flowed so true
Gm7
But lately it's been misstepping
C           Fmaj7
Towards an inner


[Chorus]
F#dim7  Gm7                       Fmaj7
        We're not singing in the same key,
F#dim7  Gm7                  Fmaj7
        No longer making any melody
Am7          A7            Dm7   Dm7*
What would become, of the harmony
G7                 Caug
If only sung from memory

[Verse 3]
Fmja7
I know that you've been listening,
Fmaj7                         Gm
To the notes that don't quite blend,
Gm7
But if you let me tune my heartstrings,
      C        Gm7       C
We can fall in love,    again.


[Intro repeated]


[Chorus]
F#dim7  Gm7                       Fmaj7
        We're not singing in the same key,
F#dim7  Gm7                  Fmaj7
        No longer making any melody
Am7          A7            Dm7   Dm7*
What would become, of the harmony
G7                 Caug
If only sung from memory

Fmaj7
I know that you've been listening
Fmaj7                          Gm
To the notes that don't quite blend
Gm7                       C
But if you let me tune my heartstrings
       Gm7      C
We can fall in love
       A7       Dm7
We can fall in love
       Gm7        C      Fmaj7
We can fallll in love again

            
            
Suggest correction
Creating personal tab
Creating personal tab
You can edit any tab online and save it as your Personal.

You can edit, replace or remove any tab part or add personal notes – all changes will be seen only by you.

Personal tabs can be accessed anytime from any device, even offline.
Learn more »
Give kudos to tab author, rate the tab!
1 2 3 4 5
comments
print report bad tab
guest
You may want to rate the tab now too:
select rating
Wanna post a correction for this tab? Suggest correction