Oops, an error
Loading. Please wait.

Backwards To You chords

13 views 1 this week
no commentswrite comment
1 2 3 4 5
2 more votes to show rating
add to favorites
×
Save as Personal and add changes to this tab that will be seen only by you. Learn more ›
×
You can save this tab as Personal to edit and correct it or add notes. All changes will be seen only by you. Learn more »
launch autoscroll
font size
0
reset
transpose
0
reset
display chords
guitar tuner
edit
Autoscroll
slow
fast
+/-
esc
set tempo
stop
Author
Strumming
There is no strumming pattern for this song yet. and get +5 IQ
Artist: Ed Seifert
Song: Backwards To You



[Intro]

E|---------------|      lead guitar              E|---------------|
B|---------------|      repeat x3 during verse   B|---------------|
G|---0-3---------| x2   and 4th time----------   G|---0-3---------|
D|-------3-1-0---|                               D|-------3-1-----|
A|---------------|                               A|-----------3---|
E|---------------|                               E|---------------|

D   Gm   D   Gm


[Verse 1]

D                              Gm
  Sometimes it seems like such a good idea

D                            Gm
  Sneakin' into shadows out of sight

D                           Gm
  But now it's winter and I know for sure

Cm          D             Gm
  I'm gonna be alone to - night   |   And


[Chorus]

Cm                       Gm                        Cm                       Gm
I can only wonder if the things you're saying will tomorrow and tomorrow be true   |    I


  Cm                     Gm                        Cm             D            Gm            D
Look into the mirror and I know it's wrong but I'm working my way backwards to you


[Verse 2]

D                               Gm
   Sometimes I think I can't go on like this

D                                Gm
   Some nights I'm ready for the kill

D                             Gm
   But when I try to tell you to your face

Cm                D           Gm
   Your eyes they overcome my will

[Chorus 2]

Cm                Gm                   Cm              Gm
I can't even tell you every-thing I'm feelin' 'cause I know what a heartache can do   |   But
  
Cm                 Gm                                 Cm         D                 Gm           D
Half a love's a better love than no love at all so I'm working my way backwards to you


[Solo]

  D                              Gm

E|-----5--------|-----5--------|-------------------------|
B|--------------|--------------|-------------------------|
G|---7----------|---7----------|------3----5----7-10-8---|
D|-------7------|-------7------|---/5---/7---/8----------|
A|--------------|--------------|-------------------------|
E|--------------|--------------|-------------------------|

  D                              Gm                     Cm       D        Gm

E|-----5--------|-----5--------|-----------------------|-------3-2p3-----------3-------|
B|--------------|--------------|-----------------------|---3-4-------3-------3---3-----|
G|---7----------|---7----------|------3----5----7-10-8-|-5-------------3-2-0-------0---|
D|-------7------|-------7------|---/5---/7---/8--------|-------------------------------|
A|--------------|--------------|-----------------------|-------------------------------|
E|--------------|--------------|-----------------------|-------------------------------|


E|---------------|
B|---------------|
G|---0-3---------|
D|-------3-1-0---|
A|---------------|
E|---------------|

[Verse 3]

D                              Gm
Sometimes I watch you when you think I'm sleepin'

D                            Gm
And I see my doubt upon your face

D                          Gm
But when I came and put my arms around you

Cm       D               Gm
It disap-pears without a trace


[Chorus 3]

Cm                              Gm                 Cm                  Gm
Every time I think it should be gettin' clearer, I realize I haven't a clue  |   I'm

Cm                     Gm                        Cm             D            Gm           D
damned if I do and I'm damned if I don't, so I'm workin' my way backwards to you

                        Gm      D
My way backwards to you

                        Gm      D
My way backwards to you

                        Gm      D       Gm
My way backwards to you 

            
            
Suggest correction
Creating personal tab
Creating personal tab
You can edit any tab online and save it as your Personal.

You can edit, replace or remove any tab part or add personal notes – all changes will be seen only by you.

Personal tabs can be accessed anytime from any device, even offline.
Learn more »
Give kudos to tab author, rate the tab!
1 2 3 4 5
comments
print report bad tab
guest
You may want to rate the tab now too:
select rating
Wanna post a correction for this tab? Suggest correction