Oops, an error
Loading. Please wait.

Afire Love Tab

version 1
version 1

Whole song

Video

14,935 views 138 this week
3 commentsread comments
1 2 3 4 5
x 15
add to favorites
launch autoscroll
font size
0
reset
how to read this tab
guitar tuner
Autoscroll
slow
fast
+/-
esc
set tempo
stop
Help us to improve Ultimate-Guitar.com Take our survey!
×
Author
-------------------------------------------------------------------------------
                             Afire Love - Ed Sheeran
-------------------------------------------------------------------------------
Tabbed by: ERoberts1204

Tuning: Standard

Capo on FIFTH FRET


[Intro]

Am | F | Dm | G x2
C  | F | Dm | G


[Verse 1]

Am                           G  C
Things were all good yesterday 
                                 G  F
And then the devil took your memory 
                          C      F
And if you fell to your death today, 
                                    Am
I hope that heaven is your resting place 

Am                                    G  C
I heard the doctors put your chest in pain
                                   G F 
then that could've been the medicine
                                  G 
And now you're lying in the bed again
G
Either way I'll cry with the rest of them


[Pre-Chorus]

F      C         Am
And my father told me son
C
It's not his fault he doesn't know your face
F         C            Am
And you're not the only one
            F       C            G
Although my grandma used to say, he used to sing

e|------------|
B|------------|
G|------------|
D|---------0--|
A|-----0h2----|
E|-3h5--------|


[Chorus]

e|------------------------------------------------------------|
B|------------------------------------------------------------|
G|------------------0--------------0--------------------------|
D|---2-----2------3-----3--------3-----3------0-------------0-| x4
A|-0---0-----0--3---------3--3/5---------5------2-------0h2---|
E|------------------------------------------3-------3h5-------|

Darling, hold me in your arms the way you did last night
And we'll lie inside for a little while, here oh
I could look into your eyes until the sun comes up
And we're wrapped in light, in life, in love
Put your open lips on mine and slowly let them shut
For they're designed to be together, oh
With your body next to mine our hearts will beat as one
And we're set alight, we're afire love


[Verse]

Am                           G  C
Things were all good yesterday
                                      G  F
And then the devil took your breath away
                           C F
And now we're left here in pain 
                                       Am
Black suit black tie standing in the rain

Am                           G C 
And now my family is one again 
                                             G F
Stapled together with the strangers and a friend
                                           G
Came to my mind I should paint it with a pen 
G
Six years old I remember when 


[Pre-Chorus]

F      C         Am
And my father told me son
C
It's not his fault he doesn't know your face
F         C            Am
And you're not the only one
            F       C            G
Although my grandma used to say, he used to sing

e|------------|
B|------------|
G|------------|
D|---------0--|
A|-----0h2----|
E|-3h5--------|


[Chorus]

e|------------------------------------------------------------|
B|------------------------------------------------------------|
G|------------------0--------------0--------------------------|
D|---2-----2------3-----3--------3-----3------0-------------0-| x4
A|-0---0-----0--3---------3--3/5---------5------2-------0h2---|
E|------------------------------------------3-------3h5-------|

Darling, hold me in your arms the way you did last night
And we'll lie inside for a little while, here oh
I could look into your eyes until the sun comes up
And we're wrapped in light, in life, in love
Put your open lips on mine and slowly let them shut
For they're designed to be together, oh
With your body next to mine our hearts will beat as one
And we're set alight, we're afire love


[Bridge]

e|------------------------------------------------------------|
B|------------------------------------------------------------|
G|-----0-------------0-------------0--------------------------|
D|---2-----2------3-----3--------3-----3--------0-----------0-| x4
A|-0---0-----0--3----3----3--3/5---5-----5----2---------0h2---|
E|------------------------------------------3-------3h5-------|

Am                        F
My father, and all of my family 
                 Dm                  G
rise from their seats to sing hallelujah
       Am                     F
And my brother and all of my family 
                Dm                   G
rise from their seats to sing hallelujah     x2


[Outro]

e|------------------------------------------------------------|
B|------------------------------------------------------------|
G|-----0------------0--------------0--------------------------|
D|---2-----2------3-----3--------3-----3--------0-----------0-| 
A|-0---------0--3---------3--3/5---------5----2---------0h2---|
E|------------------------------------------3-------3h5-------|

e|------------------------------------------------------------|
B|------------------------------------------------------------|
G|-----0------------0--------------0--------------------------|
D|---2-----2------3-----3--------3-----3------0-------------0-| 
A|-0---------0--3---------3--3/5---------5------2-------0h2---|
E|------------------------------------------3-------3h5-------|

e|------------------------------------------------------------|
B|------------------------------------------------------------|
G|------------------0--------------0--------------------------|
D|---2-----2------3-----3--------3-----3------0---------------| 
A|-0---0-----0--3---------3--3/5---------5------2-------------|
E|------------------------------------------3-----------------|


************************************

| /   slide up
| \   slide down
| h   hammer-on
| p   pull-off
| ~   vibrato
| +   harmonic
| x   Mute note
| b   Bend
| pb  Pre-bend
| br  Bend release
| pbr Pre-bend release
| brb Bend release bend

************************************
Suggest correction
comments
print report bad tab
3 comments total.
+1 reply
miaowsoftkittay 42 Sep 08, 2014 01:27 AM

this is actually really good, a lot better than a lot of the other tabs on here, good work, glad i dont have to sit and tab this one myself
Thanks :)

-1 reply
Rocksmither 270 Dec 21, 2014 05:23 PM, edited on March 29 2015, 12:12 pm

Ok I changed my comment cause I sounded like a butt. Great tab.

0 reply
Burrwonkeys 10 Apr 20, 2016 09:24 AM

Chords doesn't match very well. for example prechorus should be F Em Am C G for a more correct sound

guest
You may want to rate the tab now too:
select rating
Wanna post a correction for this tab? Suggest correction