Oops, an error
Loading. Please wait.
We have Chord Pro version of All Of The Stars.
It's the closest thing you can get to the original song and it has interactive parts. Check out the tab »
×
33,503 views 201 this week
2 commentsread comments
1 2 3 4 5
x 16
add to favorites
launch autoscroll
font size
0
reset
how to read this tab
guitar tuner
Autoscroll
slow
fast
+/-
esc
set tempo
stop
Author
Tuning
Capo
E A D G B E
2nd fret
-------------------------------------------------------------------------------
                             All Of The Stars (live) - Ed Sheeran
-------------------------------------------------------------------------------
Tabbed by: ConorGAL
Tuning: Standard (EADGBe)
Capo 2
This is the video to play along to: https://www.youtube.com/watch?v=yhxiFy0A_3Q


[Verse]
         
e|---------------------------------------------------------------------------|
B|-------0--------0-----------------0--------0--------0---------0--------0---|
G|-----4--4-----4--4------4---4---4--4-----4--4-----4--4------3--3-----3--3--|
D|---4--------4---------4---4---4--------4--------4---------4--------4-------|
A|-0--------2---------x---x---x--------2--------2---------x--------x---------|
E|------------------4---2---0---------------------------2--------2-----------|

 
[Chorus]
e|--------------------------------------------------------------------------------|
B|-------0--------0---------0--------0----------0---------0---------0---------0---|
G|-----4--4-----4--4------4--4-----4--4-------3--3------3--3------3--3------3--3--|
D|---4--------4---------4--------4----------4---------4---------4---------4-------|
A|-2--------2---------2--------2----------x---------x---------x---------x---------|
E|--------------------------------------2---------2---------2---------2-----------|

e|-------------------------------------------------------------------------------------------|
B|---------0----------0----------0----------0----------0----------0----------0----------0----|
G|-------4--4-------4--4-------4--4-------4--4-------4--4-------4--4-------4--4-------4--4---|
D|-----4----------4----------4----------4----------4----------4----------4----------4--------|
A|---x----------x----------x----------x----------x----------x----------x----------x----------|
E|-4----------4----------4----------4----------0----------0----------0----------0------------|

e|-------------------------|
B|---------0----------0----|
G|-------3--3-------3--3---|
D|-----4----------4--------|
A|---x----------x----------|
E|-2----------2------------|


************************************

| x  Dead note

************************************
Suggest correction
comments
print report bad tab
2 comments total.
0 reply
wortiz_13 10 Apr 23, 2016 06:40 PM

This YouTube video is more accurate

https://m.youtube.com/watch?v=sJX_hQ21VJQ

On here, things feel incorrect and incomplete.

0 reply
xxcomplexxx 10 Jun 18, 2016 05:04 PM

While playing i noticed that this sounded a little off, the one problem is with the into tab, instead of it starting off with the A string second fret and on, start with open E, then start how the tabs say

https://www.youtube.com/watch?v=zzaAQtMmNHs

Listen live to understand what im saying

guest
You may want to rate the tab now too:
select rating
Wanna post a correction for this tab? Suggest correction