Oops, an error
Loading. Please wait.

All Of The Stars Acoustic Tab

version 1
version 1

Whole song

21,670 views 165 this week
no commentswrite comment
1 2 3 4 5
excellent!
x 9
add to favorites
launch autoscroll
font size
0
reset
how to read this tab
guitar tuner
Tab Pro tools
  • play this tab
  • loop segment
  • change instrument
  • show fretboard
  • metronome
Autoscroll
slow
fast
+/-
esc
set tempo
stop
Contributor
-------------------------------------------------------------------------------
                             All Of The Stars (live) - Ed Sheeran
-------------------------------------------------------------------------------
Tabbed by: ConorGAL

Tuning: Standard (EADGBe)

Capo 2

This is the video to play along to: https://www.youtube.com/watch?v=yhxiFy0A_3Q

                         Verse
         
e|------------------------------------------------------------------------------------------|
B|-------0--------0-----------------0--------0--------0---------0--------0------------------|
G|-----4--4-----4--4------4---4---4--4-----4--4-----4--4------3--3-----3--3-----------------|
D|---4--------4---------4---4---4--------4--------4---------4--------4----------------------|
A|-2--------2---------x---x---x--------2--------2---------x--------x------------------------|
E|------------------4---2---0---------------------------2--------2--------------------------|

 
                        Chorus
e|-------------------------------------------------------------------------------------------|
B|-------0--------0---------0--------0----------0---------0---------0---------0--------------|
G|-----4--4-----4--4------4--4-----4--4-------3--3------3--3------3--3------3--3-------------|
D|---4--------4---------4--------4----------4---------4---------4---------4------------------|
A|-2--------2---------2--------2----------x---------x---------x---------x--------------------|
E|--------------------------------------2---------2---------2---------2----------------------|

e|-------------------------------------------------------------------------------------------|
B|---------0----------0----------0----------0----------0----------0----------0----------0----|
G|-------4--4-------4--4-------4--4-------4--4-------4--4-------4--4-------4--4-------4--4---|
D|-----4----------4----------4----------4----------4----------4----------4----------4--------|
A|---x----------x----------x----------x----------x----------x----------x----------x----------|
E|-4----------4----------4----------4----------0----------0----------0----------0------------|

e|---------------------------------------------------------------------------|
B|---------0----------0------------------------------------------------------|
G|-------3--3-------3--3-----------------------------------------------------|
D|-----4----------4----------------------------------------------------------|
A|---x----------x------------------------------------------------------------|
E|-2----------2--------------------------------------------------------------|

comments
print report bad tab
I want to post or [tab]
guest
You may want to rate the tab now too:
select rating
Please do not post tabs as comments. Select "correction" instead!