Oops, an error
Loading. Please wait.
We have Chord Pro version of All Of The Stars.
It's the closest thing you can get to the original song and it has interactive parts. Check out the tab »
×
2,346 views 9 this week
no commentswrite comment
1 2 3 4 5
1 last vote to show rating
add to favorites
×
Save as Personal and add changes to this tab that will be seen only by you. Learn more ›
×
You can save this tab as Personal to edit and correct it or add notes. All changes will be seen only by you. Learn more »
launch autoscroll
font size
0
reset
how to read this tab
guitar tuner
edit
Autoscroll
slow
fast
+/-
esc
set tempo
stop
Title: All Of The Stars
Artist: Ed Sheeran

That's the way, Ed Sheeran plays it live. 

Capo: 2

If you want to play along to the studio version, play without capo.



VERSE I

It's just another night, and I'm staring at the moon. I saw a shooting star, and thought of you

I sang a lullaby, by the waterside and knew. If you were here, I'd sing to you

You're on the other side, as the skyline splits in two. I'm miles away from seeing you

I can see the stars from America. I wonder, do you see them, too?

|----------------|----------------|----------------|----------------|
|----------------|----------------|----------------|-0-------0------|
|-4-------4------|-4--4---4-------|-4-------4------|-3-------3------|     played 4x
|-4-------4------|-4--4---4-------|-4-------4------|-4-------4------|
|---------2------|----------------|-2-------2------|----------------|
|-0--------------|-4--2---0-------|----------------|-2-------2------|
  ,   .   ,   .    ,   .   ,   .    ,   .   ,   .    ,   .   ,   .   




CHORUS I

So open your eyes and see
The way our horizons meet
And all of the lights will lead
Into the night with me

----------|----------|----------|----------|----------|----------|----------|----------|
--0--0----|--0--0----|--0--0----|--0--0----|--0--0----|--0--0----|--0--0----|--0--0----|
--4--4----|--4--4----|--3--3----|--3--3----|--4--4----|--4--4----|--4--4----|--4--3----|
----------|----------|----------|----------|----------|----------|----------|----------|
--2--2----|--2--2----|----------|----------|----------|----------|----------|----------|
----------|----------|--2--2----|--2--2----|--4--4----|--4--4----|--0--0----|--0--2----|

And I know these scars will bleed
But both of our hearts believe
All of these stars will guide us home

|----------|----------|----------|----------|----------|----------|----------|
|--0--0----|--0--0----|--0--0----|--0--0----|--0--0----|--0--0----|--0--0----|
|--4--4----|--4--4----|--3--3----|--3--3----|--4--4----|--4--3----|--4--4----|
|----------|----------|----------|----------|----------|----------|-----4----|
|--2--2----|--2--2----|----------|----------|----------|--2-------|--2--2----|
|----------|----------|--2--2----|--2--2----|--4--0----|-----2----|----------|




VERSE II

I can hear your heart, on the radio beat. They're playing 'Chasing Cars', and I thought of us

Back to the time, you were lying next to me. I looked across and fell in love

So I took your hand, back through London streets I knew. Everything led back to you

So can you see the stars? Over Amsterdam. You're the song my heart is beating to

|----------------|----------------|----------------|----------------|
|-0-------0------|-0--0---0-------|-0-------0------|-0-------0------|
|-4-------4------|-4--4---4-------|-4-------4------|-3-------3------|     played 4x
|----------------|----------------|----------------|-4-------4------|
|---------2------|----------------|-2-------2------|----------------|
|-0--------------|-4--2---0-------|----------------|-2-------2------|
  ,   .   ,   .    ,   .   ,   .    ,   .   ,   .    ,   .   ,   .   




CHORUS II

So open your eyes and see
The way our horizons meet
And all of the lights will lead
Into the night with me

----------|----------|----------|----------|----------|----------|----------|----------|
--0--0----|--0--0----|--0--0----|--0--0----|--0--0----|--0--0----|--0--0----|--0--0----|
--4--4----|--4--4----|--3--3----|--3--3----|--4--4----|--4--4----|--4--4----|--4--3----|
----------|----------|----------|----------|----------|----------|----------|----------|
--2--2----|--2--2----|----------|----------|----------|----------|----------|----------|
----------|----------|--2--2----|--2--2----|--4--4----|--4--4----|--0--0----|--0--2----|

And I know these scars will bleed
But both of our hearts believe
All of these stars will guide us home

|----------|----------|----------|----------|----------|----------|
|--0--0----|--0--0----|--0--0----|--0--0----|--0--0----|--0--0----|
|--4--4----|--4--4----|--3--3----|--3--3----|--4--4----|--4--3----|
|----------|----------|----------|----------|----------|----------|
|--2--2----|--2--2----|----------|----------|----------|--2-------|
|----------|----------|--2--2----|--2--2----|--4--0----|-----2----|




BRIDGE

And oooohh,         and oooohh,           and oooohh

|----------|----------|----------|----------|----------|----------|----------|----------|
|--0--0----|--0--0----|--0--0----|--0--0----|--0--0----|--0--0----|--0--0----|--0--0----|
|--4--4----|--3--3----|--4--4----|--4--4----|--4--4----|--3--3----|--4--4----|--4--4----|
|----------|--4--4----|----------|----------|----------|--4--4----|----------|----------|
|----------|----------|----------|-----2----|----------|----------|--2--2----|--2--2----|
|--0--0----|--2--2----|--4--4----|--0-------|--0--0----|--2--2----|----------|----------|




OUTRO

I can see the stars from America.

----------|----------------|----||
--0--0----|--0--0--0-------|----||
--4--4----|--4--4--4-------|----||
----------|----------------|----||
-----2----|----------------|----||
--0-------|--4--2--0-------|----||





Picking patterns not include to keep the tab clean and easy to read.

Should be something like this:

|-----------------------|
|--------------X--------|
|----------X-------X----|
|-----------------------| 
|-----------------------|
|-X------X---X---X------| 

            
            
Suggest correction
Creating personal tab
Creating personal tab
You can edit any tab online and save it as your Personal.

You can edit, replace or remove any tab part or add personal notes – all changes will be seen only by you.

Personal tabs can be accessed anytime from any device, even offline.
Learn more »
Give kudos to tab author, rate the tab!
1 2 3 4 5
comments
print report bad tab
guest
You may want to rate the tab now too:
select rating
Wanna post a correction for this tab? Suggest correction