Oops, an error
Loading. Please wait.
We have Chord Pro version of Autumn Leaves.
It's the closest thing you can get to the original song and it has interactive parts. Check out the tab »
×

Autumn Leaves tab

version 6
version 6

Whole song

  • Is more accurate in intro and verse. Sounds more like the original song.
  • I found that the other tabs are not very accurate,... Show more

Interactive

2,772 views 21 this week
no commentswrite comment
1 2 3 4 5
x 4
add to favorites
×
Save as Personal and add changes to this tab that will be seen only by you. Learn more ›
×
You can save this tab as Personal to edit and correct it or add notes. All changes will be seen only by you. Learn more »
launch autoscroll
font size
0
reset
how to read this tab
guitar tuner
edit
Autoscroll
slow
fast
+/-
esc
set tempo
stop
-------------------------------------------------------------------------------
                             Autumn Leaves - Ed Sheeran
-------------------------------------------------------------------------------
Tabbed by: Tyrone John Diaz
E-mail: tyronejohndiaz@gmail.com

Tuning: Standard
Capo 3

INTRO

e|-------------------------------------------------|
B|-----3-------3-------0-----1h3-1p0---------------|
G|---0---0---2---0---0---0---0---0-----------------|
D|-------------------------------------------------|
A|-------------------------3-----------------------|
E|-0-------2-------3-------------------------------|

e|------------0------------------------------------|
B|-----3-----3-3------0-----1---0------------------|
G|---0---0------0---0---0---0---0------------------|
D|-------------------------------------------------|
A|------------------------3---3--------------------|
E|-0-------2------3--------------------------------|

Verse 1

      Another day ...
e|-------------------------------------------------|
B|-----3-------3-------0-----1---0-----------------|
G|---0---0---2---0---0---0---0---0-----------------| x3
D|-------------------------------------------------|
A|-----------------------=-3---3-------------------|
E|-0-------2-------3-------------------------------|

                                   Do you ever ...
e|---------------------------------------------------|
B|-----3-------3-------0-------1-0-1---1-------1---3-|
G|---0---0---2---0---0---0---0-0-0-0-0---0---0---0-0-| 
D|-------------------------------------------------0-|
A|-------------------------3---3-3-3-------3---------|
E|-0-------2-------3---------------------------------|

Chorus

      Float down ...
e|-------------------------------------------------|
B|-----0-------------------------------------------|
G|---0---0-----2-0-----0-------2-0-----------------| x2
D|-----------0-------0---0---0---------------------|
A|-------------------------3-----------------------|
E|-3-------2-------0-------------------------------|

e|-------------------------------------------------|
B|-----0-----------------------1-0-----------------|
G|---0---0-----2-0-----0-------2-0-----------------| x2
D|-----------0-------0---0---0---------------------|
A|-------------------------3-----------------------|
E|-3-------2-------0-------------------------------|



e|-------------------------------------------------|
B|-----3-------3-------0-----1---0-----------------|
G|---0---0---2---0---0---0---0---0-----------------| x2
D|-------------------------------------------------|
A|-----------------------=-3---3-------------------|
E|-0-------2-------3-------------------------------|

Verse 2

      Another tear ...
e|-------------------------------------------------|
B|-----3-------3-------0-----1---0-----------------|
G|---0---0---2---0---0---0---0---0-----------------| x3
D|-------------------------------------------------|
A|-----------------------=-3---3-------------------|
E|-0-------2-------3-------------------------------|

                                  Is it that ...
e|------------0-------------------------------------|
B|-----3-----3-3------0-------1-0-1---1-------1---3-|
G|---0---0------0---0---0---0-0-0-0-0---0---0---0-0-| 
D|------------------------------------------------0-|
A|------------------------3---3-3-3-------3---------|
E|-0-------2------3---------------------------------|

Chorus

      Float down ...
e|-------------------------------------------------|
B|-----0-------------------------------------------|
G|---0---0-----2-0-----0-------2-0-----------------| x2
D|-----------0-------0---0---0---------------------|
A|-------------------------3-----------------------|
E|-3-------2-------0-------------------------------|

e|-------------------------------------------------|
B|-----0-----------------------1-0-----------------|
G|---0---0-----2-0-----0-------2-0-----------------| x2
D|-----------0-------0---0---0---------------------|
A|-------------------------3-----------------------|
E|-3-------2-------0-------------------------------|

Bridge

        Ooh how I ...
e|-------------------------------------------------|
B|-----0---3---0-----------0---1-0-----------------|
G|---0---0---0---0-----0-----0---------------------|
D|-------------------0---0-------------------------|
A|-----------------3-------------------------------|
E|-0-----------------------------------------------|


e|-------------------------------------------------|
B|---------0-----1---------3-----------------------|
G|-----0-------0-------2-----2---2-----------------|
D|---0---0---0-------0---0-----0-------------------|
A|-----------------0-------------------------------|
E|-3-----------------------------------------------|

e|-------------------------------------------------|
B|-----0---3---0-------0---1-0---0-----------------|
G|---0---0---0---0---0---0-----0-------------------|
D|-------------------------------------------------|
A|-----------------3-------------------------------|
E|-0-----------------------------------------------|

e|-------------------------------------------------|
B|-----0---1-0---0-----0---3---0---0---3-----------|
G|---0---0-----0-----0---0---0---0---0-------------|
D|-----------------0-------------------------------|
A|-------------------------------------------------|
E|-3-----------------------------------------------|

Pre-Chorus
   Do you ever ...
e|-------------------------------------------------|
B|-----1---3---1-------1---3-----------------------|
G|---0---0---0---0---0---0---0--0------------------|
D|-----------------0-----------0-------------------|
A|-3-----------------------------------------------|
E|-------------------------------------------------|

Chorus

      Float down ...
e|-------------------------------------------------|
B|-----0-------------------------------------------|
G|---0---0-----2-0-----0-------2-0-----------------| x2
D|-----------0-------0---0---0---------------------|
A|-------------------------3-----------------------|
E|-3-------2-------0-------------------------------|

e|-------------------------------------------------|
B|-----0-----------------------1-0-----------------|
G|---0---0-----2-0-----0-------2-0-----------------| x2
D|-----------0-------0---0---0---------------------|
A|-------------------------3-----------------------|
E|-3-------2-------0-------------------------------|

     Hmmm...
e|-------------------------------------------------|
B|-----3-0---1-0-------3-----1h3-1p0---------------|
G|---0-----------0---0---0---0---0-----------------| x2
D|-------------------------------------------------|
A|-------------------------3-----------------------|
E|-0-------2-------3-------------------------------|

      Touch down ...
e|-------------------------------------------------|
B|-----0-----------------------1-0-----------------|
G|---0---0-----2-0-----0-------2-0-----------------|
D|-----------0-------0---0---0---------------------|
A|-------------------------3-----------------------|
E|-3-------2-------0-------------------------------|

e|-------------------------------------------------|
B|-----0-------------------------------------------|
G|---0---0-----2-0-----0-------2---0---------------| x2
D|-----------0-------0---0---0---0-----------------|
A|-------------------------3-----------------------|
E|-3-------2-------0-------------------------------|

************************************

| /   slide up
| \   slide down
| h   hammer-on
| p   pull-off
| ~   vibrato
| +   harmonic
| x   Mute note
| b   Bend
| pb  Pre-bend
| br  Bend release
| pbr Pre-bend release
| brb Bend release bend

************************************

            
            
Suggest correction
Creating personal tab
Creating personal tab
You can edit any tab online and save it as your Personal.

You can edit, replace or remove any tab part or add personal notes – all changes will be seen only by you.

Personal tabs can be accessed anytime from any device, even offline.
Learn more »
comments
print report bad tab
guest
You may want to rate the tab now too:
select rating
Wanna post a correction for this tab? Suggest correction