Oops, an error
Loading. Please wait.

Barcelona tab

version 3
version 3

Whole song

  • This is how Ed plays it with the chord variations and rhythmic chord changes.
  • This tuning might sound better and be easier to pl... Show more

Interactive

1,339 views 9 this week
1 commentread comment
1 2 3 4 5
1 last vote to show rating
add to favorites
×
Save as Personal and add changes to this tab that will be seen only by you. Learn more ›
×
You can save this tab as Personal to edit and correct it or add notes. All changes will be seen only by you. Learn more »
launch autoscroll
font size
0
reset
how to read this tab
guitar tuner
edit
Autoscroll
slow
fast
+/-
esc
set tempo
stop
About this tab version
This tuning might sound better and be easier to play than putting a capo on the first fret with standard tuning. Was this info helpful? Yes No
Tuning: Tune low E to a D then drop everything a half step.
This is the way I could get it to sound most like the recording.
I tried to add some rhythm and "x" for the ghost hits but you
might just have to listen and figure out the strumming.

[Intro]
      1   e   +   a   2   e   +   a   3   e   +   a   4   e   +   a
D#|-----------------------------------------------------------------|
A#|---------------8-------7-----------------------------------------|
F#|---------------7-------7-----------------------9-------7---------|
C#|-----------------------------------------------9-------7---------|
G#|---0-------------------------------------------------------------|
C#|---0-------------------------------9-----------------------------|
              x       x       x   x           x       x       x

      1   e   +   a   2   e   +   a   3   e   +   a   4   e   +   a
D#|-----------------------------------------------------------------|
A#|-------------------------------------------7---7---7---7---7---7-|
F#|---------------7-------6-------------------7---7---7---7---7---7-|
C#|---------------7-------7-------------------7---7---7---7---7---7-|
G#|-------------------------------------------5---5---5---5---5---5-|
C#|---7-------------------------------5-----------------------------|

      1   e   +   a   2   e   +   a   3   e   +   a   4   e   +   a
D#|-----------------------------------------------------------------|
A#|---------------8-------7-----------------------------------------|
F#|---------------7-------7-----------------------9-------7---------|
C#|-----------------------------------------------9-------7---------|
G#|---0-------------------------------------------------------------|
C#|---0-------------------------------9-----------------------------|

      1   e   +   a   2   e   +   a   3   e   +   a   4   e   +   a
D#|-----------------------------------------------------------------|
A#|-----------------------------------------------------------------|
F#|---------------7-------6-----------------------------------------|
C#|---------------7-------7-----------5-----------------------------|
G#|-----------------------------------5-----------------------------|
C#|---7-------------------------------5-----------------------------|

[Verse 1:](Play this 4 times)
D#|-----------------------------------------------------------------|
A#|---------------8-------7-----------------------------------------|
F#|---------------7-------7-----------------------9-------7---------|
C#|-----------------------------------------------9-------7---------|
G#|---0-------------------------------------------------------------|
C#|---0-------------------------------9-----------------------------|

D#|-----------------------------------------------------------------|
A#|-------------------------------------------7---7---7---7---7---7-|
F#|---------------7-------6-------------------7---7---7---7---7---7-|
C#|---------------7-------7-------------------7---7---7---7---7---7-|
G#|-------------------------------------------5---5---5---5---5---5-|
C#|---7-------------------------------5-----------------------------|

[Pre Chorus]
D#|-----------------------------------------------------------------|
A#|---------------6-------7-----------------------------------------|
F#|---------------7-------7-----------------------9-------7---------|
C#|-----------------------------------------------9-------7---------|
G#|-----------------------------------------------------------------|
C#|---5-------------------------------7-----------------------------|

D#|-----------------------------------------------------------------|
A#|----------7---7---7---7---7---7------------7---7---7---7---7---7-|
F#|----------7---7---7---7---7---7------------7---7---7---7---7---7-|
C#|----------7---7---7---7---7---7------------7---7---7---7---7---7-|
G#|-----------------------------------------------------------------|
C#|---9---------------------------------0---------------------------|

D#|-----------------------------------------------------------------|
A#|---------------6-------7-----------------------------------------|
F#|---------------7-------7-----------------------9-------7---------|
C#|-----------------------------------------------9-------7---------|
G#|-----------------------------------------------------------------|
C#|---5-------------------------------7-----------------------------|

D#|-----------------------------------------------------------------|
A#|----------7---7---7---7---7---7------------7---7---7---7---7---7-|
F#|----------7---7---7---7---7---7------------7---7---7---7---7---7-|
C#|----------7---7---7---7---7---7------------7---7---7---7---7---7-|
G#|-----------------------------------------------------------------|
C#|---9---------------------------------0---------------------------|

D#|-----------------------------------------------------------------|
A#|---------------6-------7-----------------------------------------|
F#|---------------7-------7-----------------------9-------7---------|
C#|-----------------------------------------------9-------7---------|
G#|-----------------------------------------------------------------|
C#|---5-------------------------------7-----------------------------|

D#|-----------------------------------------------------------------|
A#|----------7---7---7---7---7---7------------7---7---7---7---7---7-|
F#|----------7---7---7---7---7---7------------7---7---7---7---7---7-|
C#|----------7---7---7---7---7---7------------7---7---7---7---7---7-|
G#|-----------------------------------------------------------------|
C#|---9---------------------------------0---------------------------|

D#|-----------------------------------------------------------------|
A#|-----------------------------------------------------------------|
F#|----------------------------------6---6---6---6---6---6---6---6--|
C#|--5---5---5---5---5---5---5---5---7---7---7---7---7---7---7---7--|
G#|--5---5---5---5---5---5---5---5---7---7---7---7---7---7---7---7--|
C#|--5---5---5---5---5---5---5---5---7---7---7---7---7---7---7---7--|

[Interlude](Same as intro)

[Verse 2]
D#|-----------------------------------------------------------------|
A#|---------------8-------7-----------------------------------------|
F#|---------------7-------7-----------------------9-------7---------|
C#|-----------------------------------------------9-------7---------|
G#|---0-------------------------------------------------------------|
C#|---0-------------------------------9-----------------------------|

D#|-----------------------------------------------------------------|
A#|-------------------------------------------7---7---7---7---7---7-|
F#|---------------7-------6-------------------7---7---7---7---7---7-|
C#|---------------7-------7-------------------7---7---7---7---7---7-|
G#|-------------------------------------------5---5---5---5---5---5-|
C#|---7-------------------------------5-----------------------------|

D#|-----------------------------------------------------------------|
A#|---------------8-------7-----------------------------------------|
F#|---------------7-------7-----------------------9-------7---------|
C#|-----------------------------------------------9-------7---------|
G#|---0-------------------------------------------------------------|
C#|---0-------------------------------9-----------------------------|

D#|-----------------------------------------------------------------|
A#|-------------------------------------------7---7---7---7---7---7-|
F#|---------------7-------6-------------------7---7---7---7---7---7-|
C#|---------------7-------7-------------------7---7---7---7---7---7-|
G#|-------------------------------------------5---5---5---5---5---5-|
C#|---7-------------------------------5-----------------------------|

D#|-----------------------------------------------------------------|
A#|-----------------------------------------------------------------|
F#|-----------------------------------------------------------------|
C#|-0-----------0---0---0-------------------------------------------|
G#|-0-----------0---0---0-------------------------------------------|
C#|-0-----------0---0---0-------------------------------------------|


D#|-----------------------------------------------------------------|
A#|---------------8-------7-----------------------------------------|
F#|---------------7-------7-----------------------9-------7---------|
C#|-----------------------------------------------9-------7---------|
G#|---0-------------------------------------------------------------|
C#|---0-------------------------------9-----------------------------|

[Break](over "I want you baby solamente")

[Pre Chorus]

[Interlude](Plays main riff then switches to pre chorus riff)

Contintue with main riff to the end

            
            
Suggest correction
Creating personal tab
Creating personal tab
You can edit any tab online and save it as your Personal.

You can edit, replace or remove any tab part or add personal notes – all changes will be seen only by you.

Personal tabs can be accessed anytime from any device, even offline.
Learn more »
Give kudos to tab author, rate the tab!
1 2 3 4 5
comments
print report bad tab
1 comment total.
0 reply
airgio 33 Mar 11, 2017 12:29 AM

didn't like this contribution

guest
You may want to rate the tab now too:
select rating
Wanna post a correction for this tab? Suggest correction