Oops, an error
Loading. Please wait.

Be Like You tab

version 2
version 2

Whole song

  • Reversed a two note "chord" from DA on 3rd and 4th... Show more
820 views 9 this week
no commentswrite comment
1 2 3 4 5
2 more votes to show rating
add to favorites
×
Save as Personal and add changes to this tab that will be seen only by you. Learn more ›
×
You can save this tab as Personal to edit and correct it or add notes. All changes will be seen only by you. Learn more »
launch autoscroll
font size
0
reset
how to read this tab
guitar tuner
edit
Autoscroll
slow
fast
+/-
esc
set tempo
stop
Author
Difficulty
About this tab version
Reversed a two note "chord" from DA on 3rd and 4th string to EG, closer to actual sound. Was this info helpful? Yes No
Ed Sheeran - Be Like You

Tabbed by Swift Freeze

I tabbed this by ear and am 97% sure it is correct other than the bridge.

Tuning EADGBe

Capo - 3

I have added a strumming guideline for the pre-chorus marked as T||----DDUD etc.

Intro

e||----------------------------------------------| (0:00)
B||---------------3----------------------3-------|
G||-0--2x-2-----0-0----0--0x0-2x-2-----0-0----0--|
D||-0--1x-1-0h2-2---0-0h2-0x0-1x-1-0h2-2---0-0h2-|
A||------2--------3-------------2--------3-------|
E||-3---------------------3x3--------------------|

Verse 1

e||------------------------| x2 (0:09)
B||----------------3-------|
G||-0x0-2x-2-----0-0----0--|
D||-0x0-1x-1-0h2-2---0-0h2-|
A||-------2--------3-------|
E||-3x3--------------------|

e||--------------------------| x1 (0:18)
B||------------------3-------|
G||-0x0-2x-2---------0----0--|
D||-0x0-1x-1-0h2h5p2---0-0h2-|
A||-------2----------3-------|
E||-3x3----------------------|

e||-----------------------------| x1 (0:23)
B||--------------------3-x------|
G||-0x0-2x-2-----(0X)--0-x----0-|
D||-0x0-1x-1-0h2-(2X)-0----0-0h2|
A||-------2------------3-x------|
E||-3x3-------------------------|

e||------------------------| x2 (0:28)
B||----------------3-------|
G||-0x0-2x-2-----0-0----0--|
D||-0x0-1x-1-0h2-2---0-0h2-|
A||-------2--------3-------|
E||-3x3--------------------|

e||--------------------------| x1 (0:37)
B||------------------3-------|
G||-0x0-2x-2---------0----0--|
D||-0x0-1x-1-0h2h5p2---0-0h2-|
A||-------2----------3-------|
E||-3x3----------------------|


e||---------------------------| (0:42)
B||-------------------3-------|
G||-0x0-2x-2-------00-0----0--|
D||-0x0-1x-1-0h2p0-220--0-0h2-|
A||-------2-----------3-------|
E||-3x3-----------------------|

Pre-Chorus


T||-D--U-D--U-D--D-DU--DDUD--D-DU--DDUD--D-DU--DDUD---| (0:46)
e||--------------------------3-3x--33x3---------------|
B||-0h11x0h11x1--1-1x--11x1--3-3x--33x3---------------|
G||-0--0x0--0x0--0-0x--00x0--0-0x--00x2--2-2x--22x2---|
D||-2--2x2--2x2--2-2x--22x2--0-0x--00x0--0-0x--00x0---|
A||--------------3-3x--33x3--2-2x--22x2--0-0x--00x0---|
E||--------------------------3-3x--33x3---------------|

T||-D-DU--DDUD--D-DU--DDUD--D-DU--DDUD--D--D-------|
e||-------------------------3-3x--33x3-------------| (0:56)
B||-1-1x--11x1--1-1x--11x1--3-3x--32x3-------------|
G||-0-0x--00x0--0-0x--00x0--0-0x--22x2--2r-2r------|
D||-2-2x--22x2--2-2x--22x2--0-0x--00x0--0r-1r------|
A||-------------3-3x--33x3--2-2x--22x2--0r-2r------|
E||-------------------------3-3x--33x3-------------|

Chorus

e||-------------------3--3-----------------------------------3--3----------| (1:05)
B||----------1--1-----1--1-----0--------------------1--1-----1--1-----0----|
G||-0--0-----0--0--------------0--2--2-----0--0-----0--0--------------0--2-|
D||-2--2--------------------------0--1-----2--2--------------------------1-|
A||----------------------------------2-----------------------------------2-|
E||------------------------------------------------------------------------|

Verse 2

e||----------------------| (1:24)
B||--------------3-------|
G||-0-2x-2-----0-0----0--|
D||-0-1x-1-0h2-2---0-0h2-|
A||-----2--------3-------|
E||-3--------------------|

e||---------------------------|x2 (1:28)
B||-------------------3-------|
G||-0x0-2x-2-------00-0----0--|
D||-0x0-1x-1-0h2p0-220--0-0h2-|
A||-------2-----------3-------|
E||-3x3-----------------------|

e||--------------------------| x4 (1:38)
B||------------------3-------|
G||-0x0-2x-2---------0----0--|
D||-0x0-1x-1-0h2h5p2---0-0h2-|
A||-------2----------3-------|
E||-3x3----------------------|

e||------------------------| x2 (1:57)
B||----------------3-------|
G||-0x0-2x-2-----0-0----0--|
D||-0x0-1x-1-0h2-2---0-0h2-|
A||-------2--------3-------|
E||-3x3--------------------|

Pre-Chorus


T||-D--U-D--U-D--D-DU--DDUD--D-DU--DDUD--D-DU--DDUD---| (2:01)
e||--------------------------3-3x--33x3---------------|
B||-0h11x0h11x1--1-1x--11x1--3-3x--33x3---------------|
G||-0--0x0--0x0--0-0x--00x0--0-0x--00x2--2-2x--22x2---|
D||-2--2x2--2x2--2-2x--22x2--0-0x--00x0--0-0x--00x0---|
A||--------------3-3x--33x3--2-2x--22x2--0-0x--00x0---|
E||--------------------------3-3x--33x3---------------|

T||-D-DU--DDUD--D-DU--DDUD--D-DU--DDUD--D--D-------|
e||-------------------------3-3x--33x3-------------| (2:11)
B||-1-1x--11x1--1-1x--11x1--3-3x--32x3-------------|
G||-0-0x--00x0--0-0x--00x0--0-0x--22x2--2r-2r------|
D||-2-2x--22x2--2-2x--22x2--0-0x--00x0--0r-1r------|
A||-------------3-3x--33x3--2-2x--22x2--0r-2r------|
E||-------------------------3-3x--33x3-------------|

Chorus

e||-------------------3--3-----------------------------------3--3----------| (2:20)
B||----------1--1-----1--1-----0--------------------1--1-----1--1-----0----|
G||-0--0-----0--0--------------0--2--2-----0--0-----0--0--------------0--2-|
D||-2--2--------------------------0--1-----2--2--------------------------1-|
A||----------------------------------2-----------------------------------2-|
E||------------------------------------------------------------------------|

Bridge

I found it hard to distinguish from the Piano harmony, 
but here is what I came up with not quite what Ed plays, alternatively you can strum the chords if you wish.

e||----------------------------------2--x---2-----------------------------------3-x---------| (2:38)
B||----1--1-----1--1------3--3-------3--x---3-------1--1-----1--1-----3--3----2-2-x---------|
G||--0---0-0------0-0-------0-0----2--2-x-2--2----0---0-0------0-0------0-0------2x--2-2----|
D||-2---------2------------------------0---------2---------2-------------------------1-1----|
A||----------3----------2---------------------------------3---------2----------------2-2----|
E||--------------------3---------0---------------------------------3---------0--------------|

Chorus

e||-------------------3--3-----------------------------------3--3--------3-| x3 (2:57)
B||----------1--1-----1--1-----0--------------------1--1-----1--1-----0--3-|
G||-0--0-----0--0--------------0--2--2-----0--0-----0--0--------------0--0-|
D||-2--2--------------------------0--1-----2--2--------------------------0-|
A||----------------------------------2-----------------------------------2-|
E||----------------------------------------------------------------------3-|

            
            
Suggest correction
Creating personal tab
Creating personal tab
You can edit any tab online and save it as your Personal.

You can edit, replace or remove any tab part or add personal notes – all changes will be seen only by you.

Personal tabs can be accessed anytime from any device, even offline.
Learn more »
Give kudos to tab author, rate the tab!
1 2 3 4 5
comments
print report bad tab
guest
You may want to rate the tab now too:
select rating
Wanna post a correction for this tab? Suggest correction