Oops, an error
Loading. Please wait.

Bibia Be Ye Ye tab

version 1
version 1

Whole song

  • Fully structured tab with song timings, easy to follow.

Video

  • High quality video lesson, on screen tab, easy to follow.
3,250 views 222 this week
no commentswrite comment
1 2 3 4 5
1 last vote to show rating
add to favorites
×
Save as Personal and add changes to this tab that will be seen only by you. Learn more ›
×
You can save this tab as Personal to edit and correct it or add notes. All changes will be seen only by you. Learn more »
launch autoscroll
font size
0
reset
how to read this tab
guitar tuner
edit
Autoscroll
slow
fast
+/-
esc
set tempo
stop
About this tab version
Fully structured tab with song timings, easy to follow. Was this info helpful? Yes No
===========================================
VIDEO LESSON TO ACOMPANY TAB
https://www.youtube.com/watch?v=welgV9vkYKU
===========================================


CHORDS USED:

     G      Am       C       D

e|---3---|---0---|---0---|---2---|
B|---3---|---1---|---1---|---3---|
G|---0---|---2---|---0---|---2---|
D|---0---|---2---|---2---|---0---|
A|---2---|---0---|---3---|-------|
E|---3---|-------|-------|-------|

==================================



[INTRO RIFF a]
0.00 - 0.07

GUITAR 1
e|---------------------8-|-----8-----------10-|
B|-6/8--8--8-10p8------8-|-----8--10p8-7-7-10-|
G|----------------9-9----|-9-9----------------| x2
D|-----------------------|--------------------|
A|-----------------------|--------------------|
E|-----------------------|--------------------|
           .      ....     ...         ...

GUITAR 2
   D  D U  U D   D D D  D U   D  D U  U D   D D D  D U
e|------3--3-3-|-----0--0-0-|------0--0-0-|-----2--2-3-|
B|------3--3-3-|-----1--1-1-|------1--1-1-|-3-3-3--3-3-|
G|------0--0-0-|-2-2-2--2-2-|-0--0-0--0-0-|-2-2-2--2-2-| x2
D|-0--0--------|-2-2--------|-2--2--------|-0-0--------|
A|-2--2--------|-0-0--------|-3--3--------|------------|
E|-3--3--------|------------|-------------|------------|
   ....          ...          ....          ...



[INTRO RIFF b]
0.08 - 0.15

GUITAR 1
e|---------15-14-14-12----|------12-15--------14-17----|
B|-----12--------------13-|-x-13-------x-x-15----------|
G|-x-x-12-----------------|----------------------------| x1
D|-x-x--------------------|----------------------------|
A|------------------------|----------------------------|
E|------------------------|----------------------------|
  
e|---------15-14-14-12----|------12-15--------14-17-17-|
B|-----12--------------13-|-x-13-------x-x-15----------|
G|-x-x-12-----------------|----------------------------| x1
D|-x-x--------------------|----------------------------|
A|------------------------|----------------------------|
E|------------------------|----------------------------|

GUITAR 2
e|------3--3-3-|-----0--0-0-|------0--0-0-|-----2--2-3-|
B|------3--3-3-|-----1--1-1-|------1--1-1-|-3-3-3--3-3-|
G|------0--0-0-|-2-2-2--2-2-|-0--0-0--0-0-|-2-2-2--2-2-| x1
D|-0--0--------|-2-2--------|-2--2--------|-0-0--------|
A|-2--2--------|-0-0--------|-3--3--------|------------|
E|-3--3--------|------------|-------------|------------|
   ....          ...          ....          ...

e|------3--3-3-|-----0--0-0-|------0--0-0-|-----2--2-3-|
B|------3--3-3-|-----1--1-1-|------1--1-1-|-3-3-3--3-3-|
G|------0--0-0-|-2-2-2--2-2-|-0--0-0--0-0-|-2-2-2--2-2-| x1
D|-0--0--------|-2-2--------|-2--2--------|-0-0--------|
A|-2--2--------|-0-0--------|-3--3--------|------------|
E|-3--3--------|------------|-------------|------------|
   ....          ...          ....          ...



[VERSE]
0.15 - 0.29
"I lost my shoes last night, I don't know where I put my keys..."
e|------3--3-3-|-----0--0-0-|------0--0-0-|-----2--2-3-|
B|------3--3-3-|-----1--1-1-|------1--1-1-|-3-3-3--3-3-|
G|------0--0-0-|-2-2-2--2-2-|-0--0-0--0-0-|-2-2-2--2-2-| x4
D|-0--0--------|-2-2--------|-2--2--------|-0-0--------|
A|-2--2--------|-0-0--------|-3--3--------|------------|
E|-3--3--------|------------|-------------|------------|
   ....          ...          ....          ...



[PRE-CHORUS]
0.30 - 0.44
"...all I know is, I got a cab and then threw up upon his car seat..."

GUITAR 1
e|---------15-14-12----|------12-15--------14-17-|
B|-----12-----------13-|-x-13-------x-x-15-------|
G|-x-x-12--------------|-------------------------| x4
D|-x-x-----------------|-------------------------|
A|---------------------|-------------------------|
E|---------------------|-------------------------|
  
GUITAR 2
e|------3--3-3-|-----0--0-0-|------0--0-0-|-----2--2-3-|
B|------3--3-3-|-----1--1-1-|------1--1-1-|-3-3-3--3-3-|
G|------0--0-0-|-2-2-2--2-2-|-0--0-0--0-0-|-2-2-2--2-2-| x4
D|-0--0--------|-2-2--------|-2--2--------|-0-0--------|
A|-2--2--------|-0-0--------|-3--3--------|------------|
E|-3--3--------|------------|-------------|------------|



[CHORUS a]
0.45 - 0.59
"Someone told me, always say what's on your mind..."
e|------3--3-3-|-----0--0-0-|------0--0-0-|-----2--2-3-|
B|------3--3-3-|-----1--1-1-|------1--1-1-|-3-3-3--3-3-|
G|------0--0-0-|-2-2-2--2-2-|-0--0-0--0-0-|-2-2-2--2-2-| x4
D|-0--0--------|-2-2--------|-2--2--------|-0-0--------|
A|-2--2--------|-0-0--------|-3--3--------|------------|
E|-3--3--------|------------|-------------|------------|



[CHORUS b]
1.00 - 1.07
"Bibia be ye ye..."
e|---------15-14-12----|------12-15--------14-17-|
B|-----12-----------13-|-x-13-------x-x-15-------|
G|-x-x-12--------------|-------------------------| x2
D|-x-x-----------------|-------------------------|
A|---------------------|-------------------------|
E|---------------------|-------------------------|



[VERSE]
1.08 - 1.22
"I remember less and less, and mostly things that I regret..."
e|------3--3-3-|-----0--0-0-|------0--0-0-|-----2--2-3-|
B|------3--3-3-|-----1--1-1-|------1--1-1-|-3-3-3--3-3-|
G|------0--0-0-|-2-2-2--2-2-|-0--0-0--0-0-|-2-2-2--2-2-| x4
D|-0--0--------|-2-2--------|-2--2--------|-0-0--------|
A|-2--2--------|-0-0--------|-3--3--------|------------|
E|-3--3--------|------------|-------------|------------|
   ....          ...          ....          ...



[PRE-CHORUS]
1.23 - 1.38
"Now things are looking up, I’ll find my shoes right next to the oak tree..."

GUITAR 1
e|---------15-14-12----|------12-15--------14-17-|
B|-----12-----------13-|-x-13-------x-x-15-------|
G|-x-x-12--------------|-------------------------| x4
D|-x-x-----------------|-------------------------|
A|---------------------|-------------------------|
E|---------------------|-------------------------|
  
GUITAR 2
e|------3--3-3-|-----0--0-0-|------0--0-0-|-----2--2-3-|
B|------3--3-3-|-----1--1-1-|------1--1-1-|-3-3-3--3-3-|
G|------0--0-0-|-2-2-2--2-2-|-0--0-0--0-0-|-2-2-2--2-2-| x4
D|-0--0--------|-2-2--------|-2--2--------|-0-0--------|
A|-2--2--------|-0-0--------|-3--3--------|------------|
E|-3--3--------|------------|-------------|------------|



[CHORUS]
1.39 - 1.53
"Someone told me, always say what's on your mind..."

GUITAR 1
e|------3--3-3-|-----0--0-0-|------0--0-0-|-----2--2-3-|
B|------3--3-3-|-----1--1-1-|------1--1-1-|-3-3-3--3-3-|
G|------0--0-0-|-2-2-2--2-2-|-0--0-0--0-0-|-2-2-2--2-2-| x4
D|-0--0--------|-2-2--------|-2--2--------|-0-0--------|
A|-2--2--------|-0-0--------|-3--3--------|------------|
E|-3--3--------|------------|-------------|------------|


GUITAR 2
e|---------15-14-12----|------12-15--------14-17-|
B|-----12-----------13-|-x-13-------x-x-15-------|
G|-x-x-12--------------|-------------------------| x4
D|-x-x-----------------|-------------------------|
A|---------------------|-------------------------|
E|---------------------|-------------------------|



[BRIDGE]
(same as RIFF b)
1.54 - 2.07
"Wo nooma, Be Ye Ye, Wo nooma maaaa ye"
e|---------15-14-14-12----|------12-15--------14-17----|
B|-----12--------------13-|-x-13-------x-x-15----------|
G|-x-x-12-----------------|----------------------------| x1
D|-x-x--------------------|----------------------------|
A|------------------------|----------------------------|
E|------------------------|----------------------------|
  
e|---------15-14-14-12----|------12-15--------14-17-17-|
B|-----12--------------13-|-x-13-------x-x-15----------|
G|-x-x-12-----------------|----------------------------| x1
D|-x-x--------------------|----------------------------|
A|------------------------|----------------------------|
E|------------------------|----------------------------|

e|---------15-14-14-12----|------12-15--------14-17----|
B|-----12--------------13-|-x-13-------x-x-15----------|
G|-x-x-12-----------------|----------------------------| x1
D|-x-x--------------------|----------------------------|
A|------------------------|----------------------------|
E|------------------------|----------------------------|
  
e|---------15-14-14-12----|------12-15--------14-17-17-|
B|-----12--------------13-|-x-13-------x-x-15----------|
G|-x-x-12-----------------|----------------------------| x1
D|-x-x--------------------|----------------------------|
A|------------------------|----------------------------|
E|------------------------|----------------------------|



[CHORUS]
2.08 - 2.38
"Someone told me, always say what's on your mind..."

GUITAR 1
e|------3--3-3-|-----0--0-0-|------0--0-0-|-----2--2-3-|
B|------3--3-3-|-----1--1-1-|------1--1-1-|-3-3-3--3-3-|
G|------0--0-0-|-2-2-2--2-2-|-0--0-0--0-0-|-2-2-2--2-2-| x8
D|-0--0--------|-2-2--------|-2--2--------|-0-0--------|
A|-2--2--------|-0-0--------|-3--3--------|------------|
E|-3--3--------|------------|-------------|------------|


GUITAR 2
e|---------15-14-12----|------12-15--------14-17-|
B|-----12-----------13-|-x-13-------x-x-15-------|
G|-x-x-12--------------|-------------------------| x8
D|-x-x-----------------|-------------------------|
A|---------------------|-------------------------|
E|---------------------|-------------------------|



[RIFF b]
2.39 - To End
e|---------15-14-14-12----|------12-15--------14-17----|
B|-----12--------------13-|-x-13-------x-x-15----------|
G|-x-x-12-----------------|----------------------------| x4
D|-x-x--------------------|----------------------------|
A|------------------------|----------------------------|
E|------------------------|----------------------------|
  

***********************************

| p   Pull-off
| x   Dead Note
| /   Slide Up

***********************************
Suggest correction
Creating personal tab
Creating personal tab
You can edit any tab online and save it as your Personal.

You can edit, replace or remove any tab part or add personal notes – all changes will be seen only by you.

Personal tabs can be accessed anytime from any device, even offline.
Learn more »
Give kudos to tab author, rate the tab!
1 2 3 4 5
comments
print report bad tab
guest
You may want to rate the tab now too:
select rating
Wanna post a correction for this tab? Suggest correction