Oops, an error
Loading. Please wait.
We have Chord Pro version of Bloodstream.
It's the closest thing you can get to the original song and it has interactive parts. Check out the tab »
×

Bloodstream tab

version 6
version 6

Whole song

  • I made the sections much more easier to follow, wi... Show more
  • Different tuning, from standard tuning (EADGBe) to EADEBe.

Interactive

Video

640 views 18 this week
1 commentread comment
1 2 3 4 5
1 last vote to show rating
add to favorites
×
Save as Personal and add changes to this tab that will be seen only by you. Learn more ›
×
You can save this tab as Personal to edit and correct it or add notes. All changes will be seen only by you. Learn more »
launch autoscroll
font size
0
reset
how to read this tab
guitar tuner
edit
Autoscroll
slow
fast
+/-
esc
set tempo
stop
About this tab version
Different tuning, from standard tuning (EADGBe) to EADEBe. Was this info helpful? Yes No
*************************************************************************************************************

                                            Ed Sheeran - Bloodstream
                                             Album: Multiply [2014]

*************************************************************************************************************

Tuning: Standard,EADEBe
Capo: 4th fret

      EADEBe
B:    0240xx
G6:   3200xx
A:    x0200x
Em7:  0200xx


The lyric parts are placed under the tabs..

[Intro]
(Guitar 1)
  B                                       G6
e|---------------------------------------|---------------------------------------|
B|---------------------------------------|---------------------------------------|
E|-------0-----0-----------0-----0-------|-------0-----0-----------0-----0-------|
D|-----4-----4-----4-----4-----4-----4---|-----0-----0-----0-----0-----0-----0---|
A|---2-----2-----2-----2-----2-----2-----|---------------------------------------|
E|---------------------------------------|---3-----3-----3-----3-----3-----3-----|

  A                                       Em7
e|---------------------------------------|---------------------------------------|
B|---------------------------------------|---------------------------------------|
E|-------0-----0-----------0-----0-------|-------0-----0-----------0-----0-------|
D|-----2-----2-----2-----2-----2-----2---|-----0-----0-----0-----0-----0-----0---|
A|---0-----0-----0-----0-----0-----0-----|---------------------------------------|
E|---------------------------------------|---0-----0-----0-----0-----0-----0-----|   (3x)

[Guitar 2]
  B                                G6
e|--------------------------------|--------------------------------|
B|-------0--------------0---------|-------0-------------0----------|
E|--------------------------------|--------------------------------|
D|---------4---4----------4---4---|---------0---0----------0---0---|
A|---2-------2-------2------2-----|--------------------------------|
E|--------------------------------|---3-------3-----3--------3-----|

  A                               Em7
e|-------------------------------|--------------------------------|
B|-------0-------------0---------|-------0-------------0----------|
E|-------------------------------|--------------------------------|
D|---------2---2---------2---2---|---------0---0----------0---0---|
A|---0-------0-----0-------0-----|--------------------------------|
E|-------------------------------|---0-------0------0-------0-----|   (2x)

[Guitar 3](add if you want)
  B       G6      A       Em7
e|-------|-------|-------|-------|
E|-------|-------|-------|-------|
G|---0---|--(0)--|--(0)--|--(0)--|
D|---4---|---0---|---2---|---0---|
A|---2---|---2---|---0---|---2---|
E|---0---|---3---|--(0)--|---0---|

[Verse 1]
(Guitar 1)
  B                                       G6
e|---------------------------------------|---------------------------------------|
B|---------------------------------------|---------------------------------------|
E|-------0-----0-----------0-----0-------|-------0-----0-----------0-----0-------|
D|-----4-----4-----4-----4-----4-----4---|-----0-----0-----0-----0-----0-----0---|
A|---2-----2-----2-----2-----2-----2-----|---------------------------------------|
E|---------------------------------------|---3-----3-----3-----3-----3-----3-----|

  A                                       Em7
e|---------------------------------------|---------------------------------------|
B|---------------------------------------|---------------------------------------|
E|-------0-----0-----------0-----0-------|-------0-----0-----------0-----0-------|
D|-----2-----2-----2-----2-----2-----2---|-----0-----0-----0-----0-----0-----0---|
A|---0-----0-----0-----0-----0-----0-----|---------------------------------------|
E|---------------------------------------|---0-----0-----0-----0-----0-----0-----|   (2x)

I've been spinnin' out of time, couple women by my side
I got sinnin' on my mind, sipping on red wine
I've been sittin' here for ages, ripping out the pages
How'd I get so faded, how'd I get so faded

[Pre-Chorus]
(Guitar 1)
  B                                       G6
e|---------------------------------------|---------------------------------------|
B|---------------------------------------|---------------------------------------|
E|-------0-----0-----------0-----0-------|-------0-----0-----------0-----0-------|
D|-----4-----4-----4-----4-----4-----4---|-----0-----0-----0-----0-----0-----0---|
A|---2-----2-----2-----2-----2-----2-----|---------------------------------------|
E|---------------------------------------|---3-----3-----3-----3-----3-----3-----|

  A                                       Em7
e|---------------------------------------|---------------------------------------|
B|---------------------------------------|---------------------------------------|
E|-------0-----0-----------0-----0-------|-------0-----0-----------0-----0-------|
D|-----2-----2-----2-----2-----2-----2---|-----0-----0-----0-----0-----0-----0---|
A|---0-----0-----0-----0-----0-----0-----|---------------------------------------|
E|---------------------------------------|---0-----0-----0-----0-----0-----0-----|   (2x)

(Guitar 2)
  B                                G6
e|--------------------------------|--------------------------------|
B|-------0--------------0---------|-------0-------------0----------|
E|--------------------------------|--------------------------------|
D|---------4---4----------4---4---|---------0---0----------0---0---|
A|---2-------2-------2------2-----|--------------------------------|
E|--------------------------------|---3-------3-----3--------3-----|

  A                               Em7
e|-------------------------------|--------------------------------|
B|-------0-------------0---------|-------0-------------0----------|
E|-------------------------------|--------------------------------|
D|---------2---2---------2---2---|---------0---0----------0---0---|
A|---0-------0-----0-------0-----|--------------------------------|
E|-------------------------------|---0-------0------0-------0-----|   (2x)

Oh, no no don't leave me a-lonely now
If you loved me how'd you never learn
Oh, colored crimson in my eyes
One or two could free my mind

[Chorus]
(Guitar 2)
  B                                G6
e|--------------------------------|--------------------------------|
B|-------0--------------0---------|-------0-------------0----------|
E|--------------------------------|--------------------------------|
D|---------4---4----------4---4---|---------0---0----------0---0---|
A|---2-------2-------2------2-----|--------------------------------|
E|--------------------------------|---3-------3-----3--------3-----|

  A                               Em7
e|-------------------------------|--------------------------------|
B|-------0-------------0---------|-------0-------------0----------|
E|-------------------------------|--------------------------------|
D|---------2---2---------2---2---|---------0---0----------0---0---|
A|---0-------0-----0-------0-----|--------------------------------|
E|-------------------------------|---0-------0------0-------0-----|   (4x)

This is how it ends
I feel the chemicals burn in my  bloodstream
Fading out again
I feel the chemicals burn in my bloodstream 
So tell me when it kicks in
                         
[Guitar 1]
  B                                       G6
e|---------------------------------------|---------------------------------------|
B|---------------------------------------|---------------------------------------|
E|-------0-----0-----------0-----0-------|-------0-----0-----------0-----0-------|
D|-----4-----4-----4-----4-----4-----4---|-----0-----0-----0-----0-----0-----0---|
A|---2-----2-----2-----2-----2-----2-----|---------------------------------------|
E|---------------------------------------|---3-----3-----3-----3-----3-----3-----|

  A                                       Em7
e|---------------------------------------|---------------------------------------|
E|---------------------------------------|---------------------------------------|
G|-------0-----0-----------0-----0-------|-------0-----0-----------0-----0-------|
D|-----2-----2-----2-----2-----2-----2---|-----0-----0-----0-----0-----0-----0---|
A|---0-----0-----0-----0-----0-----0-----|---------------------------------------|
E|---------------------------------------|---0-----0-----0-----0-----0-----0-----|   (2x)

[Guitar 2]
  B                                G6
e|--------------------------------|--------------------------------|
B|-------0--------------0---------|-------0-------------0----------|
E|--------------------------------|--------------------------------|
D|---------4---4----------4---4---|---------0---0----------0---0---|
A|---2-------2-------2------2-----|--------------------------------|
E|--------------------------------|---3-------3-----3--------3-----|

  A                               Em7
e|-------------------------------|--------------------------------|
B|-------0-------------0---------|-------0-------------0----------|
E|-------------------------------|--------------------------------|
D|---------2---2---------2---2---|---------0---0----------0---0---|
A|---0-------0-----0-------0-----|--------------------------------|
E|-------------------------------|---0-------0------0-------0-----|   (2x)

[Guitar 3](add if you want)
  B       G6      A       Em7
e|-------|-------|-------|-------|
B|-------|-------|-------|-------|
E|---0---|--(0)--|--(0)--|--(0)--|
D|---4---|---0---|---2---|---0---|
A|---2---|---2---|---0---|---2---|
E|---0---|---3---|--(0)--|---0---|

So tell me when it kicks in

[Verse 2]
(Guitar 1)
  B                                       G6
e|---------------------------------------|---------------------------------------|
B|---------------------------------------|---------------------------------------|
E|-------0-----0-----------0-----0-------|-------0-----0-----------0-----0-------|
D|-----4-----4-----4-----4-----4-----4---|-----0-----0-----0-----0-----0-----0---|
A|---2-----2-----2-----2-----2-----2-----|---------------------------------------|
E|---------------------------------------|---3-----3-----3-----3-----3-----3-----|

  A                                       Em7
e|---------------------------------------|---------------------------------------|
B|---------------------------------------|---------------------------------------|
E|-------0-----0-----------0-----0-------|-------0-----0-----------0-----0-------|
D|-----2-----2-----2-----2-----2-----2---|-----0-----0-----0-----0-----0-----0---|
A|---0-----0-----0-----0-----0-----0-----|---------------------------------------|
E|---------------------------------------|---0-----0-----0-----0-----0-----0-----|   (2x)

I've been looking for a lover, thought I'd find her in a bottle
God make me another one, I'll be feeling this tomorrow
Lord forgive me for the things I've done, I was never meant to hurt no one
I saw scars upon a broken-hearted lover

[Pre-Chorus]
(Guitar 1)
  B                                       G6
e|---------------------------------------|---------------------------------------|
B|---------------------------------------|---------------------------------------|
E|-------0-----0-----------0-----0-------|-------0-----0-----------0-----0-------|
D|-----4-----4-----4-----4-----4-----4---|-----0-----0-----0-----0-----0-----0---|
A|---2-----2-----2-----2-----2-----2-----|---------------------------------------|
E|---------------------------------------|---3-----3-----3-----3-----3-----3-----|

  A                                       Em7
e|---------------------------------------|---------------------------------------|
B|---------------------------------------|---------------------------------------|
E|-------0-----0-----------0-----0-------|-------0-----0-----------0-----0-------|
D|-----2-----2-----2-----2-----2-----2---|-----0-----0-----0-----0-----0-----0---|
A|---0-----0-----0-----0-----0-----0-----|---------------------------------------|
E|---------------------------------------|---0-----0-----0-----0-----0-----0-----|   (2x)

[Guitar 2]
  B                                G6
e|--------------------------------|--------------------------------|
B|-------0--------------0---------|-------0-------------0----------|
E|--------------------------------|--------------------------------|
D|---------4---4----------4---4---|---------0---0----------0---0---|
A|---2-------2-------2------2-----|--------------------------------|
E|--------------------------------|---3-------3-----3--------3-----|

  A                               Em7
e|-------------------------------|--------------------------------|
B|-------0-------------0---------|-------0-------------0----------|
E|-------------------------------|--------------------------------|
D|---------2---2---------2---2---|---------0---0----------0---0---|
A|---0-------0-----0-------0-----|--------------------------------|
E|-------------------------------|---0-------0------0-------0-----|   (2x)

Oh, no no don't leave me a-lonely now
If you loved me how'd you never learn
Oh, colored crimson in my eyes
One or two could free my mind

[Chorus]
(Guitar 2)
  B                                G6
e|--------------------------------|--------------------------------|
B|-------0--------------0---------|-------0-------------0----------|
E|--------------------------------|--------------------------------|
D|---------4---4----------4---4---|---------0---0----------0---0---|
A|---2-------2-------2------2-----|--------------------------------|
E|--------------------------------|---3-------3-----3--------3-----|

  A                               Em7
e|-------------------------------|--------------------------------|
B|-------0-------------0---------|-------0-------------0----------|
E|-------------------------------|--------------------------------|
D|---------2---2---------2---2---|---------0---0----------0---0---|
A|---0-------0-----0-------0-----|--------------------------------|
E|-------------------------------|---0-------0------0-------0-----|   (4x)

This is how it ends
I feel the chemicals burn in my  bloodstream
Fading out again
I feel the chemicals burn in my bloodstream 
So tell me when it kicks in
                        
[Guitar 1]
  B                                       G6
e|---------------------------------------|---------------------------------------|
B|---------------------------------------|---------------------------------------|
E|-------0-----0-----------0-----0-------|-------0-----0-----------0-----0-------|
D|-----4-----4-----4-----4-----4-----4---|-----0-----0-----0-----0-----0-----0---|
A|---2-----2-----2-----2-----2-----2-----|---------------------------------------|
E|---------------------------------------|---3-----3-----3-----3-----3-----3-----|

  A                                       Em7
e|---------------------------------------|---------------------------------------|
B|---------------------------------------|---------------------------------------|
E|-------0-----0-----------0-----0-------|-------0-----0-----------0-----0-------|
D|-----2-----2-----2-----2-----2-----2---|-----0-----0-----0-----0-----0-----0---|
A|---0-----0-----0-----0-----0-----0-----|---------------------------------------|
E|---------------------------------------|---0-----0-----0-----0-----0-----0-----|   (2x)

[Guitar 2]

  B                                G6
e|--------------------------------|--------------------------------|
B|-------0--------------0---------|-------0-------------0----------|
E|--------------------------------|--------------------------------|
D|---------4---4----------4---4---|---------0---0----------0---0---|
A|---2-------2-------2------2-----|--------------------------------|
E|--------------------------------|---3-------3-----3--------3-----|

  A                               Em7
e|-------------------------------|--------------------------------|
B|-------0-------------0---------|-------0-------------0----------|
E|-------------------------------|--------------------------------|
D|---------2---2---------2---2---|---------0---0----------0---0---|
A|---0-------0-----0-------0-----|--------------------------------|
E|-------------------------------|---0-------0------0-------0-----|   (2x)

[Guitar 3](add if you want)
  B       G6      A       Em7
e|-------|-------|-------|-------|
B|-------|-------|-------|-------|
E|---0---|--(0)--|--(0)--|--(0)--|
D|---4---|---0---|---2---|---0---|
A|---2---|---2---|---0---|---2---|
E|---0---|---3---|--(0)--|---0---|

So tell me when it kicks in

[Bridge]
(Guitar 2)
  B                                G6
e|--------------------------------|--------------------------------|
B|-------0--------------0---------|-------0-------------0----------|
E|--------------------------------|--------------------------------|
D|---------4---4----------4---4---|---------0---0----------0---0---|
A|---2-------2-------2------2-----|--------------------------------|
E|--------------------------------|---3-------3-----3--------3-----|

  A                               Em7
e|-------------------------------|--------------------------------|
B|-------0-------------0---------|-------0-------------0----------|
E|-------------------------------|--------------------------------|
D|---------2---2---------2---2---|---------0---0----------0---0---|
A|---0-------0-----0-------0-----|--------------------------------|
E|-------------------------------|---0-------0------0-------0-----|   (2x)

All the voices in my mind, calling out across the line
All the voices in my mind, calling out across the line
All the voices in my mind, calling out across the line
All the voices in my mind, calling out across the line

[Guitar 2]
  B                                G6
e|--------------------------------|--------------------------------|
B|-------0--------------0---------|-------0-------------0----------|
E|--------------------------------|--------------------------------|
D|---------4---4----------4---4---|---------0---0----------0---0---|
A|---2-------2-------2------2-----|--------------------------------|
E|--------------------------------|---3-------3-----3--------3-----|

  A                               Em7
e|-------------------------------|--------------------------------|
B|-------0-------------0---------|-------0-------------0----------|
E|-------------------------------|--------------------------------|
D|---------2---2---------2---2---|---------0---0----------0---0---|
A|---0-------0-----0-------0-----|--------------------------------|
E|-------------------------------|---0-------0------0-------0-----|   (10x)

[Guitar 3]

 |---PM--------------------------|
  B       G6      A       Em7
e|-------|-------|-------|-------|                  
B|-------|-------|-------|-------|
E|---0---|--(0)--|--(0)--|--(0)--|
D|---4---|---0---|---2---|---0---|
A|---2---|---2---|---0---|---2---|
E|---0---|---3---|--(0)--|---0---|   (4x) 

  B       G6      A       Em7
e|-------|-------|-------|-------|                  
B|-------|-------|-------|-------|
E|---0---|--(0)--|--(0)--|--(0)--|
D|---4---|---0---|---2---|---0---|
A|---2---|---2---|---0---|---2---|
E|---0---|---3---|--(0)--|---0---|   (6x) 

All the voices in my mind, calling out across the line
All the voices in my mind, calling out across the line

All the voices in my mind, calling out across the line
              Tell me when it kicks in and I saw scars upon her 
All the voices in my mind, calling out across the line
              Tell me when it kicks in, broken-hearted
All the voices in my mind, calling out across the line
              Tell me when it kicks in and I saw scars upon her 
All the voices in my mind, calling out across the line
              Tell me when it kicks in, broken-hearted
All the voices in my mind, calling out across the line
              Tell me when it kicks in and I saw scars upon her 
All the voices in my mind, calling out across the line
              Tell me when it kicks in, broken-hearted
All the voices in my mind, calling out across the line
              Tell me when it kicks in and I saw scars upon her 
All the voices in my mind, calling out across the line
              Tell me when it kicks in, broken-hearted

[Outro]

 |---PM--------------------------|
  B       G6      A       Em7
e|-------|-------|-------|-------|                  
B|-------|-------|-------|-------|
E|---0---|--(0)--|--(0)--|--(0)--|
D|---4---|---0---|---2---|---0---|
A|---2---|---2---|---0---|---2---|
E|---0---|---3---|--(0)--|---0---|   (4x) 

So tell me when it kicks in and I saw scars upon her
Tell me when it kicks in, broken-hearted
So tell me when it kicks in and I saw scars upon her
Tell me when it kicks in, broken-hearted

*************************************************************************************************************

| PM  Palm mute

*************************************************************************************************************

            
            
Suggest correction
Creating personal tab
Creating personal tab
You can edit any tab online and save it as your Personal.

You can edit, replace or remove any tab part or add personal notes – all changes will be seen only by you.

Personal tabs can be accessed anytime from any device, even offline.
Learn more »
Give kudos to tab author, rate the tab!
1 2 3 4 5
comments
print report bad tab
1 comment total.
0 reply
roymaakay 47 Feb 23, 2017 05:41 PM

Was just looking for this after his Live Lounge! Ty :)

guest
You may want to rate the tab now too:
select rating
Wanna post a correction for this tab? Suggest correction