Oops, an error
Loading. Please wait.

Castle On The Hill tab

version 1
version 1

Whole song

  • Easy to follow guitar tab, fully structured.

Interactive

Video

  • Breakdown of his live acoustic performance with on... Show more
  • Easy to follow, high quality video lesson.
46,282 views 774 this week
3 commentsread comments
1 2 3 4 5
x 33
add to favorites
×
Save as Personal and add changes to this tab that will be seen only by you. Learn more ›
×
You can save this tab as Personal to edit and correct it or add notes. All changes will be seen only by you. Learn more »
launch autoscroll
font size
0
reset
how to read this tab
guitar tuner
edit
Autoscroll
slow
fast
+/-
esc
set tempo
stop
Author
Difficulty
[Intro]
D chord strummed repeatedly (heard throughout the whole song)

D-D-U-D-D-U-D-D-U-D-D-U

e|--5-------|
B|--7-------|
G|--7-------|
D|--7-------|
A|--5-------|
E|--X-------|

[Verse]

e|------------------------------|
B|------------------------------|
G|------------------------------|
D|------------------------------|
A|-5-5------------2-2-2------4--|
E|------2-3-3--3--------5-5-----| X3

[Chorus]

D-G-Em-A
      D        G        Em       A
e|----5--------3--------7--------5---|
B|----7--------3--------8--------5---|
G|----7--------4--------9--------6---|
D|----7--------5--------9--------7---|
A|----5--------5--------7--------7---|
E|----X--------3--------X--------5---|


e|-------------------------------|
B|-------------------------------|
G|-------------------------------|
D|-------------------------------|
A|-5-5-----------------------4---|
E|------2-3-3--2--0-0-0-5-5------|

[Bridge]

Bm-G-D-A

e|------------------|------------------|---------2h3p2------|-----------------|
B|-------3----------|------------------|-------3-------3----|--------3--2--3--|
G|---4-------4------|---------2--0--2--|-----2-----------2--|------2-2--2--2--|
D|---------------4--|------0--0--0--0--|---0----------------|----2------------|
A|-2---2---2---2----|----2-------------|--------------------|--0--------------|
E|------------------|--3---------------|--------------------|-----------------|

************************************

| h   Hammer-on
| p   Pull-off

************************************
Suggest correction
Creating personal tab
Creating personal tab
You can edit any tab online and save it as your Personal.

You can edit, replace or remove any tab part or add personal notes – all changes will be seen only by you.

Personal tabs can be accessed anytime from any device, even offline.
Learn more »
comments
print report bad tab
3 comments total.
0 reply
LittleMartin549 80 Jan 11, 2017 02:32 PM

Pretty solid tab! But it is actually not Em he plays, but a version of Bm. Also, he plays just open chords not barre chords. But everything else looks good,, especially the bridge. :)

guest
You may want to rate the tab now too:
select rating
Wanna post a correction for this tab? Suggest correction