Oops, an error
Loading. Please wait.

Castle On The Hill tab

version 2
version 2

Whole song

  • Easy to follow guitar tab, fully structured.

Interactive

Video

  • Breakdown of his live acoustic performance with on... Show more
  • Easy to follow, high quality video lesson.
2,641 views 45 this week
no commentswrite comment
1 2 3 4 5
x 3
add to favorites
×
Save as Personal and add changes to this tab that will be seen only by you. Learn more ›
×
You can save this tab as Personal to edit and correct it or add notes. All changes will be seen only by you. Learn more »
launch autoscroll
font size
0
reset
how to read this tab
guitar tuner
edit
Autoscroll
slow
fast
+/-
esc
set tempo
stop
About this tab version
Easy to follow guitar tab, fully structured. Was this info helpful? Yes No
===========================================
VIDEO LESSON TO ACCOMPANY THIS TAB:
https://www.youtube.com/watch?v=6l_ilWTnEE0
===========================================



[VERSE x4]
"When I was six years old I broke my leg..."
e|-2-2-2-2-2-2-----|-3-3-3-3-3-3-3-3-|-3-3-3-3-3-3-3-3-|-3-3-3-3-3-3-3-3-|
B|-3-3-3-3-3-3-3-3-|-3-3-3-3-3-3-3-3-|-3-3-3-3-3-3-3-3-|-3-3-3-3-3-3-3-3-|
G|-2-2-2-2-2-2-2-2-|-0-0-0-0-0-0-0-0-|-2-2-2-2-2-2-2-2-|-2-2-2-2-2-2-2-2-|
D|-0-0-0-0-0-0-0-0-|-0-0-0-0-0-0-0-0-|-0-0-0-0-0-0-0-0-|-2-2-2-2-2-2-2-2-|
A|-------------0-0-|-----------------|-2-2-2-2-2-2-2-2-|-0-0-0-0-0-0-0-0-|
E|-------------2-2-|-3-3-3-3-3-3-3-3-|-----------------|-----------------|
   .....................................................................


[PRE-CHORUS x1]
"Found my heart and broke it here, made friends and lost them through the years..."
e|-3-3-3-3-3-3-3-3-|-3-3-3-3-3-3-3-3-|-2-2-2-2-2-2-2-2-|-3-3-3-3-3-3-3-3-|
B|-3-3-3-3-3-3-3-3-|-3-3-3-3-3-3-3-3-|-3-3-3-3-3-3-3-3-|-3-3-3-3-3-3-3-3-|
G|-0-0-0-0-0-0-0-0-|-2-2-2-2-2-2-2-2-|-2-2-2-2-2-2-2-2-|-0-0-0-0-0-0-0-0-|
D|-0-0-0-0-0-0-0-0-|-2-2-2-2-2-2-2-2-|-0-0-0-0-0-0-0-0-|-0-0-0-0-0-0-0-0-|
A|-----------------|-0-0-0-0-0-0-0-0-|-----------------|-----------------|
E|-3-3-3-3-3-3-3-3-|-----------------|-----------------|-3-3-3-3-3-3-3-3-|
   ......................................................................

e|-3-3-3-3-3-3-3-3-|-3-3-3-3-3-3-3-3-|-2-2-2-2-2-2-2-2-|-3-3-3-3-3-3-3-3-|
B|-3-3-3-3-3-3-3-3-|-3-3-3-3-3-3-3-3-|-3-3-3-3-3-3-3-3-|-3-3-3-3-3-3-3-3-|
G|-0-0-0-0-0-0-0-0-|-2-2-2-2-2-2-2-2-|-2-2-2-2-2-2-2-2-|-0-0-0-0-0-0-0-0-|
D|-0-0-0-0-0-0-0-0-|-2-2-2-2-2-2-2-2-|-0-0-0-0-0-0-0-0-|-0-0-0-0-0-0-0-0-|
A|-----------------|-0-0-0-0-0-0-0-0-|-----------------|-----------------|
E|-3-3-3-3-3-3-3-3-|-----------------|-----------------|-3-3-3-3-3-3-3-3-|
   .....................................................................

e|-3-3-3-3-3-3-3-3-|-3---------------|
B|-3-3-3-3-3-3-3-3-|-3---------------|
G|-0-0-0-0-0-0-0-0-|-2---------------|
D|-0-0-0-0-0-0-0-0-|-2---------------|
A|-----------------|-0---------------|
E|-3-3-3-3-3-3-3-3-|-----------------|
  ....................


[CHORUS x4]
(same as VERSE without palm muting)
"I'm on my way, driving at ninety down those country lanes..."
e|-2-2-2-2-2-2-----|-3-3-3-3-3-3-3-3-|-3-3-3-3-3-3-3-3-|-3-3-3-3-3-3-3-3-|
B|-3-3-3-3-3-3-3-3-|-3-3-3-3-3-3-3-3-|-3-3-3-3-3-3-3-3-|-3-3-3-3-3-3-3-3-|
G|-2-2-2-2-2-2-2-2-|-0-0-0-0-0-0-0-0-|-2-2-2-2-2-2-2-2-|-2-2-2-2-2-2-2-2-|
D|-0-0-0-0-0-0-0-0-|-0-0-0-0-0-0-0-0-|-0-0-0-0-0-0-0-0-|-2-2-2-2-2-2-2-2-|
A|-------------0-0-|-----------------|-2-2-2-2-2-2-2-2-|-0-0-0-0-0-0-0-0-|
E|-------------2-2-|-3-3-3-3-3-3-3-3-|-----------------|-----------------|



[VERSE x4]
"Fifteen years old and smoking handrolled cigarettes.."
e|-2-2-2-2-2-2-----|-3-3-3-3-3-3-3-3-|-3-3-3-3-3-3-3-3-|-3-3-3-3-3-3-3-3-|
B|-3-3-3-3-3-3-3-3-|-3-3-3-3-3-3-3-3-|-3-3-3-3-3-3-3-3-|-3-3-3-3-3-3-3-3-|
G|-2-2-2-2-2-2-2-2-|-0-0-0-0-0-0-0-0-|-2-2-2-2-2-2-2-2-|-2-2-2-2-2-2-2-2-|
D|-0-0-0-0-0-0-0-0-|-0-0-0-0-0-0-0-0-|-0-0-0-0-0-0-0-0-|-2-2-2-2-2-2-2-2-|
A|-------------0-0-|-----------------|-2-2-2-2-2-2-2-2-|-0-0-0-0-0-0-0-0-|
E|-------------2-2-|-3-3-3-3-3-3-3-3-|-----------------|-----------------|
   ......................................................................


[PRE-CHORUS x1]
"We found weekend jobs, when we got paid, we'd buy cheap spirits and drink them straight..."
e|-3-3-3-3-3-3-3-3-|-3-3-3-3-3-3-3-3-|-2-2-2-2-2-2-2-2-|-3-3-3-3-3-3-3-3-|
B|-3-3-3-3-3-3-3-3-|-3-3-3-3-3-3-3-3-|-3-3-3-3-3-3-3-3-|-3-3-3-3-3-3-3-3-|
G|-0-0-0-0-0-0-0-0-|-2-2-2-2-2-2-2-2-|-2-2-2-2-2-2-2-2-|-0-0-0-0-0-0-0-0-|
D|-0-0-0-0-0-0-0-0-|-2-2-2-2-2-2-2-2-|-0-0-0-0-0-0-0-0-|-0-0-0-0-0-0-0-0-|
A|-----------------|-0-0-0-0-0-0-0-0-|-----------------|-----------------|
E|-3-3-3-3-3-3-3-3-|-----------------|-----------------|-3-3-3-3-3-3-3-3-|
   .....................................................................

e|-3-3-3-3-3-3-3-3-|-3-3-3-3-3-3-3-3-|-2-2-2-2-2-2-2-2-|-3-3-3-3-3-3-3-3-|
B|-3-3-3-3-3-3-3-3-|-3-3-3-3-3-3-3-3-|-3-3-3-3-3-3-3-3-|-3-3-3-3-3-3-3-3-|
G|-0-0-0-0-0-0-0-0-|-2-2-2-2-2-2-2-2-|-2-2-2-2-2-2-2-2-|-0-0-0-0-0-0-0-0-|
D|-0-0-0-0-0-0-0-0-|-2-2-2-2-2-2-2-2-|-0-0-0-0-0-0-0-0-|-0-0-0-0-0-0-0-0-|
A|-----------------|-0-0-0-0-0-0-0-0-|-----------------|-----------------|
E|-3-3-3-3-3-3-3-3-|-----------------|-----------------|-3-3-3-3-3-3-3-3-|
   .....................................................................

e|-3-3-3-3-3-3-3-3-|-3---------------|
B|-3-3-3-3-3-3-3-3-|-3---------------|
G|-0-0-0-0-0-0-0-0-|-2---------------|
D|-0-0-0-0-0-0-0-0-|-2---------------|
A|-----------------|-0---------------|
E|-3-3-3-3-3-3-3-3-|-----------------|
   ..................................


[CHORUS x4]
(same as VERSE without palm muting)
"I'm on my way, driving at ninety down those country lanes..."
e|-2-2-2-2-2-2-----|-3-3-3-3-3-3-3-3-|-3-3-3-3-3-3-3-3-|-3-3-3-3-3-3-3-3-|
B|-3-3-3-3-3-3-3-3-|-3-3-3-3-3-3-3-3-|-3-3-3-3-3-3-3-3-|-3-3-3-3-3-3-3-3-|
G|-2-2-2-2-2-2-2-2-|-0-0-0-0-0-0-0-0-|-2-2-2-2-2-2-2-2-|-2-2-2-2-2-2-2-2-|
D|-0-0-0-0-0-0-0-0-|-0-0-0-0-0-0-0-0-|-0-0-0-0-0-0-0-0-|-2-2-2-2-2-2-2-2-|
A|-------------0-0-|-----------------|-2-2-2-2-2-2-2-2-|-0-0-0-0-0-0-0-0-|
E|-------------2-2-|-3-3-3-3-3-3-3-3-|-----------------|-----------------|


[BRIDGE x6]
"One friend left to sell clothes, one works down by the coast..."
e|-3-3-3-3-3-3-3-3-|-3-3-3-3-3-3-3-3-|-2-2-2-2-2-2-2-2-|-3-3-3-3-3-3-3-3-|
B|-3-3-3-3-3-3-3-3-|-3-3-3-3-3-3-3-3-|-3-3-3-3-3-3-3-3-|-3-3-3-3-3-3-3-3-|
G|-2-2-2-2-2-2-2-2-|-0-0-0-0-0-0-0-0-|-2-2-2-2-2-2-2-2-|-2-2-2-2-2-2-2-2-|
D|-0-0-0-0-0-0-0-0-|-0-0-0-0-0-0-0-0-|-0-0-0-0-0-0-0-0-|-2-2-2-2-2-2-2-2-|
A|-2-2-2-2-2-2-2-2-|-----------------|-----------------|-0-0-0-0-0-0-0-0-|
E|-----------------|-3-3-3-3-3-3-3-3-|-----------------|-----------------|
   .....................................................................


[CHORUS x3]
(same as VERSE without palm muting)
"And I'm on my way, I still remember these old country lanes..."
e|-2-2-2-2-2-2-----|-3-3-3-3-3-3-3-3-|-3-3-3-3-3-3-3-3-|-3-3-3-3-3-3-3-3-|
B|-3-3-3-3-3-3-3-3-|-3-3-3-3-3-3-3-3-|-3-3-3-3-3-3-3-3-|-3-3-3-3-3-3-3-3-|
G|-2-2-2-2-2-2-2-2-|-0-0-0-0-0-0-0-0-|-2-2-2-2-2-2-2-2-|-2-2-2-2-2-2-2-2-|
D|-0-0-0-0-0-0-0-0-|-0-0-0-0-0-0-0-0-|-0-0-0-0-0-0-0-0-|-2-2-2-2-2-2-2-2-|
A|-------------0-0-|-----------------|-2-2-2-2-2-2-2-2-|-0-0-0-0-0-0-0-0-|
E|-------------2-2-|-3-3-3-3-3-3-3-3-|-----------------|-----------------|
   .....................................................................


[OUTRO x1]
"We watched the sunset over the castle on the hill..."
e|-2---------------|-3---------------|-3---------------|-3---------------|
B|-3-----------3---|-3---------------|-3---------------|-3---------------|
G|-2-----------2---|-0---------------|-2---------------|-2---------------|
D|-0-----------0---|-0---------------|-0---------------|-2---------------|
A|-------------0---|-----------------|-2---------------|-0---------------|
E|-------------2---|-3---------------|-----------------|-----------------|


[END x1]
e|-2---------------|
B|-3---------------|
G|-2---------------|
D|-0---------------|
A|-----------------|
E|-----------------|



************************************

| . - palm mute 

************************************

            
            
Suggest correction
Creating personal tab
Creating personal tab
You can edit any tab online and save it as your Personal.

You can edit, replace or remove any tab part or add personal notes – all changes will be seen only by you.

Personal tabs can be accessed anytime from any device, even offline.
Learn more »
Give kudos to tab author, rate the tab!
1 2 3 4 5
comments
print report bad tab
guest
You may want to rate the tab now too:
select rating
Wanna post a correction for this tab? Suggest correction