Oops, an error
Loading. Please wait.

Dont Chords

version 7
version 7
5,557 views 189 this week
3 commentsread comments
1 2 3 4 5
accurate
x 3
add to favorites
launch autoscroll
font size
0
reset
transpose
0
reset
simplify chords
display chords
guitar tuner
Autoscroll
slow
fast
+/-
esc
set tempo
stop
Help us to improve Ultimate-Guitar.com Take our survey!
×
Difficulty
intermediate
------------------------------------------------------------------------------
                             Don't - Ed Sheeran
-------------------------------------------------------------------------------
Tabbed by: the one and only hahaha Mr. Lovendino

Tuning: Standard (EADGBE)

Here is the performance go to 16:33: https://www.youtube.com/watch?v=lR3vIjAZDnM
While the other versions are tabbed from Ed's performance on SNL with a band, this is Ed 
playing without a
band in concert in Vicar Street, Dublin. However the other tabs are fine just for 
whatever reason Ed plays
it half a step higher in this performance, this tab is if you want to play along with 
the video.


[The base line]

1E|----------------x---------------x--------------x----------------x--------------|
2B|----------------x---------------x--------------x----------------x--------------|
3G|----------------x---------------x--------------x----------------x--------------|
4D|----------------x---------------x--------------x----------------x--------------| repeat!
5A|------------8-8-x----------x3-3-x---------x4-4-x-----------x6-6-x--------------|
6E|----------------x---------------x--------------x----------------x--------------|


************************************
| /   slide up
| h   hammer-on
| x   Mute note
************************************

[Chorus]

     F7                C7             Db              Eb
e|---8------------------3--------------4---------------6-----------------------|
B|---8---h9-------------5--------------6---------------8-----------------------|
G|---8------------------3--------------6---------------8-----------------------|
D|---8---h10------------4--------------6---------------8-----------------------|
A|---8------------------3--------------4---------------6-----------------------|
E|---x------------------x--------------x---------------x-----------------------|



Strumming pattern

D D U xxx U xx D U D U xx




[Verse 1]

Fm7           Cm7
I met this girl late last year she said
Db                  Eb
Don't you worry if I disappear I told her
Fm7                        Cm7
I'm not really looking for another mistake
Db                                   Eb
I called an old friend thinking that the trouble would wait but then
Fm7                       Cm7
I jumped right in a week later returned
Db                               Eb
I reckon she was only looking for a lover to burn
Fm7                       Cm7
But I gave her my time, for two or three nights
Db                           Eb
Then I put it on pause until the moment was right

Fm7             Cm7
I went away for months
Db                       Eb
Until our paths crossed again, she told me
Fm7                      Cm7
I was never looking for a friend
Db                              Eb
Maybe you can swing by my room around ten
Fm7                         Cm7
Baby bring the lemon and a bottle of gin
Db                                 Eb
We'll be in between the sheets till' the late AM
Fm7                                             Cm7
Baby if you wanted me then you should have just said
Db
She's singing...


[Hook]

Eb                  Fm7
Don't fuck with my Love
         Cm7     Db
That heart is so cold
Eb           Fm7
All over my home
              Cm7           Db
I don't wanna know that thing
Eb                 Fm7
Don't fuck with my love
       Cm7      Db
I told her, she knows
Suggest correction
What's this?
You can suggest a correction to this tab. Community and Mods will review your correction and vote to approve or reject it.
comments
We did not receive enough feedback on this tab! Please rate:
print report bad tab
1 2 3 4 5
3 comments total.
0 reply
Rocksmither 419 wrote on March 7 2015, 01:14 pm

Chords are wrong, and the tab. Not right! F#m C#m D E are the chords. :l

0 reply
Rocksmither 419 wrote on March 7 2015, 01:15 pm

Lack of formatting. Lack of accuracy. Tab incomplete. Clearly wrong. Wrong chords, wrong tab wrong everything. Not worth learning. Well it's worth it if you like to play songs wrong

0 reply
krad68 244 wrote on July 11 2016, 05:19 am

in standard tuning, the (studio) chords are Fm7, Cm7, C#, D#. and he clearly states that this version is from a "concert in Vicar Street, Dublin." if you listen carefully, you'll clearly hear the sound of you being a, well... (Reference: https://www.youtube.com/watch?v=N0F-p9hJmVU)

guest
You may want to rate the tab now too:
select rating
Please do not post tabs as comments. Select "correction" instead!