Oops, an error
Loading. Please wait.

Even My Dad Does Sometimes tab

version 2
version 2

Whole song

709 views 1 this week
no commentswrite comment
1 2 3 4 5
3 more votes to show rating
add to favorites
×
Save as Personal and add changes to this tab that will be seen only by you. Learn more ›
×
You can save this tab as Personal to edit and correct it or add notes. All changes will be seen only by you. Learn more »
launch autoscroll
font size
0
reset
how to read this tab
guitar tuner
edit
Autoscroll
slow
fast
+/-
esc
set tempo
stop
Author
-------------------------------------------------------------------------------
                             SONG NAME - Band Name
-------------------------------------------------------------------------------

Tuning: Standard


Intro/First Verse: On the album this is all piano, but I like to strum the chords with it. 


Intro
e|--2---5-2-------0-------3----------|
B|--3---3-3-------2-------3----------|
G|--2---2-2-------2-------0----------| x2
D|--0---0-0-------2-------0----------|
A|--0---0-0-------0-------2----------|
E|------------------------3----------|

First Verse
e|--2-----------------------0-------3------2----5-3-------0-------3-------|
B|--3-----------------------2-------3------3----2-2-------2-------3-------|
G|--2-----------------------2-------0------2----3-3-------2-------0-------| x4
D|--0-----------------------2-------0------0----0-0-------2-------0-------|
A|--0-----------------------0-------2------0----0-0-------0-------2-------|
E|----------------------------------3-----------------------------3-------|

Chorus
e|--2--2--2--2--2--2--3--3--3------------------|
B|--3--3--3--3--3--3--3--3--3----0-------------|
G|--2--2--2--2--2--2--0--0--0--0-2/4-2-2h4p2p0-| x2
D|--0--0--0--0--0--0--0--0--0----0---0-0-------|
A|--0--0--0--0--0--0--2--2--2------------------| 
E|--2--2--2--2--2--2--3--3--3------------------|
                                                  
e|--2--2--2--2--2--2--3--3--3-------------------2-----------0-------------3------3-----------------------|
B|--3--3--3--3--3--3--3--3--3----0--------------3-----------2-------------3------3--------0--------------|
G|--2--2--2--2--2--2--0--0--0--0-2/4-2-2h4p2p0--4-----------2-------------0------0------0-2/4-2-2h4p2p0--| 
D|--0--0--0--0--0--0--0--0--0----0---0-0--------4-----------2-------------0------0--------0---0-0--------|
A|--0--0--0--0--0--0--2--2--2-------------------2-----------0-------------2------2-----------------------| 
E|--2--2--2--2--2--2--3--3--3---------------------------------------------3------3-----------------------|

Second Verse
e|--2-----x------0-----0-0-0-3-----3-3-3-2----5-3-------0-----0-0-0-3-----3-3-3-|
B|--3-----x------2-----2-2-2-3-----3-3-3-3----2-2-------2-----2-2-2-3-----3-3-3-|
G|--2-----x------2-----2-2-2-0-----0-0-0-2----3-3-------2-----2-2-2-0-----0-0-0-| x4
D|--0-----x------2-----2-2-2-0-----0-0-0-0----0-0-------2-----2-2-2-0-----0-0-0-|
A|--0-----x------0-----0-0-0-2-----2-2-2-0----0-0-------0-----0-0-0-2-----2-2-2-|
E|--------x------------------3-----3-3-3----------------------------3-----3-3-3-|

Chorus
e|--2--2--2--2--2--2--3--3--3------------------|
B|--3--3--3--3--3--3--3--3--3----0-------------|
G|--2--2--2--2--2--2--0--0--0--0-2/4-2-2h4p2p0-| x2
D|--0--0--0--0--0--0--0--0--0----0---0-0-------|
A|--0--0--0--0--0--0--2--2--2------------------| 
E|--2--2--2--2--2--2--3--3--3------------------|
                                                  
e|--2--2--2--2--2--2--3--3--3-------------------2-----------0-------------3------3-----------------------|
B|--3--3--3--3--3--3--3--3--3----0--------------3-----------2-------------3------3--------0--------------|
G|--2--2--2--2--2--2--0--0--0--0-2/4-2-2h4p2p0--4-----------2-------------0------0------0-2/4-2-2h4p2p0--| 
D|--0--0--0--0--0--0--0--0--0----0---0-0--------4-----------2-------------0------0--------0---0-0--------|
A|--0--0--0--0--0--0--2--2--2-------------------2-----------0-------------2------2-----------------------| 
E|--2--2--2--2--2--2--3--3--3---------------------------------------------3------3-----------------------|

Solo: The other solo tab on here is really good, so I'm going to tab out how I play it on the acoustic guitar

e|-----------------------------------------------------------|
B|---5b7br5-3-5b7br5-3-3-------5b7br5-3-5b7br5-3-3-5-5/7~~~--|
G|----------------------4\2~~~-------------------------------|
D|-----------------------------------------------------------|
A|-----------------------------------------------------------|
E|-----------------------------------------------------------|

e|--------------------------------------3~~--------------|
B|---5b7br5-3-5b7br5-3-3-------5b7br5-3-----5b7br5-3~~~--|
G|----------------------4\2~~~---------------------------|
D|-------------------------------------------------------|
A|-------------------------------------------------------|
E|-------------------------------------------------------|

e|-------------------------------------------3~~-------------|
B|--5b7br5-3-5b7br5-3-3-----3h5-3~~-5b7br5-3----5b7br5-3~~~--|
G|---------------------4\2/4---------------------------------|
D|-----------------------------------------------------------|
A|-----------------------------------------------------------|
E|-----------------------------------------------------------|

e|----------------------------------------------------------------3~--------3-|
B|--5b7br5-3-5-3---3-------------------------------------5b7br5-3----5b7br5-2-|
G|---------------4---4-2---2-----------------------2\4~~--------------------2-|
D|-----------------------4---4-2-0---0-------0h2/4--------------------------0-|
A|---------------------------------2---2-0-2--------------------------------0-|
E|--------------------------------------------------------------------------2-|

The D chord you end the solo on is the start of the final chorus.

e|--2--2--2--2--2--2--3--3--3------------------|
B|--3--3--3--3--3--3--3--3--3----0-------------|
G|--2--2--2--2--2--2--0--0--0--0-2/4-2-2h4p2p0-| x2
D|--0--0--0--0--0--0--0--0--0----0---0-0-------|
A|--0--0--0--0--0--0--2--2--2------------------| 
E|--2--2--2--2--2--2--3--3--3------------------|
                                                  
e|--2--2--2--2--2--2--3--3--3-------------------2-----------0-------------3--|
B|--3--3--3--3--3--3--3--3--3----0--------------3-----------2-------------3--|
G|--2--2--2--2--2--2--0--0--0--0-2/4-2-2h4p2p0--4-----------2-------------0--| 
D|--0--0--0--0--0--0--0--0--0----0---0-0--------4-----------2-------------0--|
A|--0--0--0--0--0--0--2--2--2-------------------2-----------0-------------2--| 
E|--2--2--2--2--2--2--3--3--3---------------------------------------------3--|




************************************

| /   slide up
| \   slide down
| h   hammer-on
| p   pull-off
| ~   vibrato
| +   harmonic
| x   Mute note
| b   Bend
| pb  Pre-bend
| br  Bend release
| pbr Pre-bend release
| brb Bend release bend

************************************

            
            
Suggest correction
Creating personal tab
Creating personal tab
You can edit any tab online and save it as your Personal.

You can edit, replace or remove any tab part or add personal notes – all changes will be seen only by you.

Personal tabs can be accessed anytime from any device, even offline.
Learn more »
Give kudos to tab author, rate the tab!
1 2 3 4 5
comments
print report bad tab
guest
You may want to rate the tab now too:
select rating
Wanna post a correction for this tab? Suggest correction