Oops, an error
Loading. Please wait.

Feeling Good Chords

39,614 views 120 this week
1 commentread comment
1 2 3 4 5
x 18
add to favorites
launch autoscroll
font size
0
reset
transpose
0
reset
display chords
guitar tuner
Autoscroll
slow
fast
+/-
esc
set tempo
stop
Help us to improve Ultimate-Guitar.com Take our survey!
×
Author
Capo
3rd fret
Capo 3

  BmA G F#
e|-----------------------3----3------2----5----2----5---------|  
B|--2-----2-0---------0---------------------------------------|  
G|-----4---------2-------0------------------------------------|  
D|-----4---------2-------0------------------------------------|  
A|-----3---------2-------0------------------------------------|  
E|------------------------------------------------------------|  
s s  s
  
  BmA G F#
e|-----------------------3-------2----2----5----2----5--------|  
B|--2-----2-0---------0---------------------------------------|  
G|-----4---------2-------0------------------------------------|  
D|-----4---------2-------0------------------------------------|  
A|-----3---------2-------0------------------------------------|  
E|------------------------------------------------------------|  
s s  s

[Verse 1]
Bm  A  G F#
Birds flying high you know how I feel 
Sun in the sky you know how I feel 
Reeds driftin' on by you know how I feel 

[Chorus]
 Bm
It's a new dawn 
 A
It's a new day 
 G
It's a new life 
 F#
For me 
Bm  A  G  F#  F#  A  F#  A  Bm
And I'm feeling good 

[Verse 2]
Bm  A  G F#
Fish in the sea you know how I feel 
River running free you know how I feel 
Blossom in the tree you know how I feel 

[Chorus]
 Bm
It's a new dawn 
 A
It's a new day 
 G
It's a new life
  F#
For me 
Bm  A  G  F#  F#  A  F#  A  Bm
And I'm feeling good 

[Verse 3]
Bm  A  G F#
Dragonfly out in the sun you know what I mean
Butterflies all havin' fun you know what I mean 
Sleep in peace when the day is done, thats what i mean

[Chorus]
 Bm
And this old world
 A
Is a new world
 G
And a bold world 
  F#
For me
Bm  A  G  F#  F#  A  F#  A  Bm
And I'm feeling good
Suggest correction
comments
print report bad tab
1 comment total.
+2 reply
JakeHowden 11 Jun 06, 2013 01:37 AM

Tabs are upside down, but thats cool!

guest
You may want to rate the tab now too:
select rating
Wanna post a correction for this tab? Suggest correction