Oops, an error
Loading. Please wait.

Firefly Tab

version 2
version 2

Whole song

6,623 views 15 this week
no commentswrite comment
1 2 3 4 5
excellent!
x 3
add to favorites
launch autoscroll
font size
0
reset
how to read this tab
guitar tuner
Autoscroll
slow
fast
+/-
esc
set tempo
stop
Help us to improve Ultimate-Guitar.com Take our survey!
×
Author
Difficulty
novice
Firefly - Ed Sheeran
Intro
e|--------------------------------------||----------------------------||
B|--------------------------------------||----------------------------||
G|--------------------------------------||----------------------------||
D|--------------------------------------||----------------------------||
A|---6-h7------6-h7/9/11------6-h7-\2---||-7---6---7---4---7---6---7--||
E|0---------0----------------0----------||-0---5---9---5---0---7---0--||

For each chord pick each note individualy 6th string then 5th string
Just listen for changes

Pattern A
e||------------------------------------------------------------|| X2
B||------------------------------------------------------------||
G||------------------------------------------------------------||
D||------------------------------------------------------------|| 
A||-7---6---7---4---7---6---7---4---7---6---7---4---7---6---7--||
E||-0---5---9---5---0---7---9---5---0---5---9---5---0---7---0--||

Pattern B
e|-----------------||
B|-----------------||
G|-----------------||
D|-----------------||
A|--4---7---4---6--||
E|--5---9---5---7--||

Pattern C

e||--------------------------------------------------------------------|| 
B||--------------------------------------------------------------------||
G||--------------------------------------------------------------------|| 
D||--------------------------------------------------------------------|| 
A||-7---6---7---4---7---6---7---4---7---6---7---4---7---6---7---4---7--||
E||-0---5---9---5---0---7---9---5---0---5---9---5---0---7---9---5---0--||


Repeat patterns A, B, C, then e|---------------------------------||
                              B|---------------------------------||
                              G|---------------------------------||
                              D|---------------------------------||
                              A|--4---7---4---7---4---7---4---6--||
                              E|--5---9---5---9---5---9---5---7--||

Finish with pattern C
Suggest correction
Give kudos to tab author, rate the tab!
1 2 3 4 5
comments
print report bad tab
guest
You may want to rate the tab now too:
select rating
Wanna post a correction for this tab? Suggest correction