Oops, an error
Loading. Please wait.

Galway Girl solo tab

version 1
version 1

Solo

  • Main riff for the Galway Girl from Ed Sheeran.
  • This is a tab for the fiddle part at the end of th... Show more

Whole song

  • Easy to follow, fully structured.

Interactive

22,822 views 957 this week
8 commentsread comments
1 2 3 4 5
x 42
add to favorites
×
Save as Personal and add changes to this tab that will be seen only by you. Learn more ›
×
You can save this tab as Personal to edit and correct it or add notes. All changes will be seen only by you. Learn more »
launch autoscroll
font size
0
reset
how to read this tab
guitar tuner
edit
Autoscroll
slow
fast
+/-
esc
set tempo
stop
About this tab version
Main riff for the Galway Girl from Ed Sheeran. Was this info helpful? Yes No
Capo on 2 (live on 4)
standard tuning

Chords
    Em     G      D      C
e|---3-----3------2------3-------|
B|---3-----3------3------3-------|
G|---0-----0------2------0-------|
D|---2-----0------0------2-------|
A|---2-----2-------------3-------|
E|---0-----3---------------------|

[Main riff]
e|--------------------------------------------230--032--------0--------------------------|
B|------------------------------------------3----------3----3----------------------------|
G|----------0--(0)2420-------------2420-242---------------4-------4-42-------0-2420------|
D|--(2)2-02------------20---2-202---------------------------------------2p0---------2-02-|
A|---------------------------------------------------------------------------------------|
E|---------------------------------------------------------------------------------------|



************************************

| (n)  Ghost note
| p    Pull-off

************************************
Suggest correction
Creating personal tab
Creating personal tab
You can edit any tab online and save it as your Personal.

You can edit, replace or remove any tab part or add personal notes – all changes will be seen only by you.

Personal tabs can be accessed anytime from any device, even offline.
Learn more »
comments
print report bad tab
8 comments total. Showing first comments.
0 reply
mindlesspie14 114 Mar 17, 2017 05:05 PM

I was looking for this. Thanks so much, it's great.

0 reply
victorkavrest 10 Mar 31, 2017 03:35 PM

👍

0 reply
familyhg120 10 Apr 04, 2017 03:42 AM

yeah this is my favourite song too thx

guest
You may want to rate the tab now too:
select rating
Wanna post a correction for this tab? Suggest correction