Oops, an error
Loading. Please wait.
We have an official Galway Girl tab made by UG professional guitarists. Check out the tab »
×

Galway Girl tab

version 1
version 1

Whole song

  • Easy to follow, fully structured.
  • Full fingerstyle arrangement by Andrew Foy.

Interactive

Video

  • Easy to follow, high quality video lesson.
12,205 views 93 this week
no commentswrite comment
1 2 3 4 5
x 3
add to favorites
×
Save as Personal and add changes to this tab that will be seen only by you. Learn more ›
×
You can save this tab as Personal to edit and correct it or add notes. All changes will be seen only by you. Learn more »
launch autoscroll
font size
0
reset
how to read this tab
guitar tuner
edit
Autoscroll
slow
fast
+/-
esc
set tempo
stop
About this tab version
Easy to follow, fully structured. Was this info helpful? Yes No
===========================================
VIDEO LESSON TO ACCOMPANY THIS TAB:
https://www.youtube.com/watch?v=3io9CK3kNLQ
===========================================


--------------
CAPO on FRET 2
==================================

CHORDS USED:

    Em7      G       D     Cadd9

e|---3---|---3---|---2---|---3---|
B|---3---|---3---|---3---|---3---|
G|---0---|---0---|---2---|---0---|
D|---2---|---0---|---0---|---2---|
A|---2---|---2---|-------|---3---|
E|---0---|---3---|-------|---0---|

==================================



[INTRO]
(let each chord ring)
0.00 - 0.09
"She played the fiddle in an Irish band..."
e|-3-------3-------|-2-------3-------|-3-------3-------|-2---------------|
B|-3-------3-------|-3-------3-------|-3-------3-------|-3---------------|
G|-0-------0-------|-2-------0-------|-0-------0-------|-2---------------| x1
D|-2-------0-------|-0-------2-------|-2-------0-------|-0---------------|
A|-2-------2-------|---------3-------|-3-------2-------|-----------------|
E|-0-------3-------|---------0-------|-0-------3-------|-----------------|
   Em7     G         D       Cadd9     Cadd9   G         D 



[VERSE]
(stop each chord from ringing out)
0.10 - 0.29
"I met her on Grafton street right outside of the bar..."
e|-3-------3-------|-2-------3-------|-3-------3-------|-2---------------|
B|-3-------3-------|-3-------3-------|-3-------3-------|-3---------------|
G|-0-------0-------|-2-------0-------|-0-------0-------|-2---------------| x2
D|-2-------0-------|-0-------2-------|-2-------0-------|-0---------------|
A|-2-------2-------|---------3-------|-2-------2-------|-----------------|
E|-0-------3-------|---------0-------|-0-------3-------|-----------------|
   Em7     G         D       Cadd9     Em7     G         D



[CHORUS]
0.30 - 0.48
"She played the fiddle in an Irish band..."
e|-3--3-3-3-3-|-3--3-3--3-3-3-3-|-2--2-2-2-2-|-3--3-3--3-3-3-3-|
B|-3--3-3-3-3-|-3--3-3--3-3-3-3-|-3--3-3-3-3-|-3--3-3--3-3-3-3-|
G|-0--0-0-0-0-|-0--0-0--0-0-0-0-|-2--2-2-2-2-|-0--0-0--0-0-0-0-|  x1
D|-2--2-2-2-2-|-0--0-0--2-2-2-2-|-0--0-0-0-0-|-2--2-2--2-2-2-2-|
A|-3--3-3-3-3-|-2--2-2--2-2-2-2-|------------|-3--3-3--3-3-3-3-|
E|-0--0-0-0-0-|-3--3-3--3-3-3-3-|------------|-0--0-0--0-0-0-0-|
   d  d u d u   d  u d  d u d u   d  d u d u   d  u d  d u d u 


"Kissed her on the neck and then I took her by the hand..."
e|-3--3-3-3-3-|-3--3-3--3-3-3-3-|-2--2-2-2-2-|-2--3-3--3-3-3-3-|
B|-3--3-3-3-3-|-3--3-3--3-3-3-3-|-3--3-3-3-3-|-3--3-3--3-3-3-3-|
G|-0--0-0-0-0-|-0--0-0--0-0-0-0-|-2--2-2-2-2-|-2--2-2--2-2-2-2-|  x1
D|-2--2-2-2-2-|-0--0-0--2-2-2-2-|-0--0-0-0-0-|-0--0-0--0-0-0-0-|
A|-3--3-3-3-3-|-2--2-2--2-2-2-2-|------------|-----------------|
E|-0--0-0-0-0-|-3--3-3--3-3-3-3-|------------|-----------------|
   d  d u d u   d  u d  d u d u   d  d u d u   d  u d  d u d u 


"...Galway girl..."
e|-3--3-3-3-3-|-3--3-3--3-3-3-3-|-2--2-2-2-2-|-3--3-3--3-3-3-3-|
B|-3--3-3-3-3-|-3--3-3--3-3-3-3-|-3--3-3-3-3-|-3--3-3--3-3-3-3-|
G|-0--0-0-0-0-|-0--0-0--0-0-0-0-|-2--2-2-2-2-|-0--0-0--0-0-0-0-|  x2
D|-2--2-2-2-2-|-0--0-0--0-0-0-0-|-0--0-0-0-0-|-2--2-2--2-2-2-2-|  
A|-3--3-3-3-3-|-2--2-2--2-2-2-2-|------------|-2--2-2--2-2-2-2-|
E|-0--0-0-0-0-|-3--3-3--3-3-3-3-|------------|-0--0-0--0-0-0-0-|
   d  d u d u   d  u d  d u d u   d  d u d u   d  u d  d u d u 



[VERSE]
(stop each chord from ringing out)
0.49 - 1.07
"You know she beat me at darts and then she beat me at pool..."
e|-3-------3-------|-2-------3-------|-3-------3-------|-2---------------|
B|-3-------3-------|-3-------3-------|-3-------3-------|-3---------------|
G|-0-------0-------|-2-------0-------|-0-------0-------|-2---------------| x2
D|-2-------0-------|-0-------2-------|-2-------0-------|-0---------------|
A|-2-------2-------|---------3-------|-2-------2-------|-----------------|
E|-0-------3-------|---------0-------|-0-------3-------|-----------------|
   Em7     G         D       Cadd9     Em7     G         D



[CHORUS]
1.08 - 1.36
"She played the fiddle in an Irish band..."
e|-3--3-3-3-3-|-3--3-3--3-3-3-3-|-2--2-2-2-2-|-3--3-3--3-3-3-3-|
B|-3--3-3-3-3-|-3--3-3--3-3-3-3-|-3--3-3-3-3-|-3--3-3--3-3-3-3-|
G|-0--0-0-0-0-|-0--0-0--0-0-0-0-|-2--2-2-2-2-|-0--0-0--0-0-0-0-|
D|-2--2-2-2-2-|-0--0-0--2-2-2-2-|-0--0-0-0-0-|-2--2-2--2-2-2-2-|  x1
A|-3--3-3-3-3-|-2--2-2--2-2-2-2-|------------|-3--3-3--3-3-3-3-|
E|-0--0-0-0-0-|-3--3-3--3-3-3-3-|------------|-0--0-0--0-0-0-0-|
   d  d u d u   d  u d  d u d u   d  d u d u   d  u d  d u d u 


"Kissed her on the neck and then I took her by the hand..."
e|-3--3-3-3-3-|-3--3-3--3-3-3-3-|-2--2-2-2-2-|-2--3-3--3-3-3-3-|
B|-3--3-3-3-3-|-3--3-3--3-3-3-3-|-3--3-3-3-3-|-3--3-3--3-3-3-3-|
G|-0--0-0-0-0-|-0--0-0--0-0-0-0-|-2--2-2-2-2-|-2--2-2--2-2-2-2-|  x1
D|-2--2-2-2-2-|-0--0-0--2-2-2-2-|-0--0-0-0-0-|-0--0-0--0-0-0-0-|
A|-3--3-3-3-3-|-2--2-2--2-2-2-2-|------------|-----------------|
E|-0--0-0-0-0-|-3--3-3--3-3-3-3-|------------|-----------------|
   d  d u d u   d  u d  d u d u   d  d u d u   d  u d  d u d u 


"...Galway girl..."
e|-3--3-3-3-3-|-3--3-3--3-3-3-3-|-2--2-2-2-2-|-3--3-3--3-3-3-3-|
B|-3--3-3-3-3-|-3--3-3--3-3-3-3-|-3--3-3-3-3-|-3--3-3--3-3-3-3-|
G|-0--0-0-0-0-|-0--0-0--0-0-0-0-|-2--2-2-2-2-|-0--0-0--0-0-0-0-|
D|-2--2-2-2-2-|-0--0-0--0-0-0-0-|-0--0-0-0-0-|-2--2-2--2-2-2-2-|  x4
A|-3--3-3-3-3-|-2--2-2--2-2-2-2-|------------|-2--2-2--2-2-2-2-|
E|-0--0-0-0-0-|-3--3-3--3-3-3-3-|------------|-0--0-0--0-0-0-0-|
   d  d u d u   d  u d  d u d u   d  d u d u   d  u d  d u d u 



[VERSE]
(stop each chord from ringing out)
1.37 - 1.55
"Now we’ve outstayed our welcome and it’s closing time..."
e|-3-------3-------|-2-------3-------|-3-------3-------|-2---------------|
B|-3-------3-------|-3-------3-------|-3-------3-------|-3---------------|
G|-0-------0-------|-2-------0-------|-0-------0-------|-2---------------| x2
D|-2-------0-------|-0-------2-------|-2-------0-------|-0---------------|
A|-2-------2-------|---------3-------|-2-------2-------|-----------------|
E|-0-------3-------|---------0-------|-0-------3-------|-----------------|
   Em7     G         D       Cadd9     Em7     G         D



[CHORUS]
1.56 - 2.24
"She played the fiddle in an Irish band..."
e|-3--3-3-3-3-|-3--3-3--3-3-3-3-|-2--2-2-2-2-|-3--3-3--3-3-3-3-|
B|-3--3-3-3-3-|-3--3-3--3-3-3-3-|-3--3-3-3-3-|-3--3-3--3-3-3-3-|
G|-0--0-0-0-0-|-0--0-0--0-0-0-0-|-2--2-2-2-2-|-0--0-0--0-0-0-0-|
D|-2--2-2-2-2-|-0--0-0--2-2-2-2-|-0--0-0-0-0-|-2--2-2--2-2-2-2-|  x1
A|-3--3-3-3-3-|-2--2-2--2-2-2-2-|------------|-3--3-3--3-3-3-3-|
E|-0--0-0-0-0-|-3--3-3--3-3-3-3-|------------|-0--0-0--0-0-0-0-|
   d  d u d u   d  u d  d u d u   d  d u d u   d  u d  d u d u 


"Kissed her on the neck and then I took her by the hand..."
e|-3--3-3-3-3-|-3--3-3--3-3-3-3-|-2--2-2-2-2-|-2--3-3--3-3-3-3-|
B|-3--3-3-3-3-|-3--3-3--3-3-3-3-|-3--3-3-3-3-|-3--3-3--3-3-3-3-|
G|-0--0-0-0-0-|-0--0-0--0-0-0-0-|-2--2-2-2-2-|-2--2-2--2-2-2-2-|  x1
D|-2--2-2-2-2-|-0--0-0--2-2-2-2-|-0--0-0-0-0-|-0--0-0--0-0-0-0-|
A|-3--3-3-3-3-|-2--2-2--2-2-2-2-|------------|-----------------|
E|-0--0-0-0-0-|-3--3-3--3-3-3-3-|------------|-----------------|
   d  d u d u   d  u d  d u d u   d  d u d u   d  u d  d u d u 


"...Galway girl..."
e|-3--3-3-3-3-|-3--3-3--3-3-3-3-|-2--2-2-2-2-|-3--3-3--3-3-3-3-|
B|-3--3-3-3-3-|-3--3-3--3-3-3-3-|-3--3-3-3-3-|-3--3-3--3-3-3-3-|
G|-0--0-0-0-0-|-0--0-0--0-0-0-0-|-2--2-2-2-2-|-0--0-0--0-0-0-0-|
D|-2--2-2-2-2-|-0--0-0--0-0-0-0-|-0--0-0-0-0-|-2--2-2--2-2-2-2-|  x4
A|-3--3-3-3-3-|-2--2-2--2-2-2-2-|------------|-2--2-2--2-2-2-2-|
E|-0--0-0-0-0-|-3--3-3--3-3-3-3-|------------|-0--0-0--0-0-0-0-|
   d  d u d u   d  u d  d u d u   d  d u d u   d  u d  d u d u 



[OUTRO]
(same as last part of CHORUS)
2.25 - To End
e|-3--3-3-3-3-|-3--3-3--3-3-3-3-|-2--2-2-2-2-|-3--3-3--3-3-3-3-|
B|-3--3-3-3-3-|-3--3-3--3-3-3-3-|-3--3-3-3-3-|-3--3-3--3-3-3-3-|
G|-0--0-0-0-0-|-0--0-0--0-0-0-0-|-2--2-2-2-2-|-0--0-0--0-0-0-0-| x4
D|-2--2-2-2-2-|-0--0-0--0-0-0-0-|-0--0-0-0-0-|-2--2-2--2-2-2-2-|
A|-3--3-3-3-3-|-2--2-2--2-2-2-2-|------------|-2--2-2--2-2-2-2-|
E|-0--0-0-0-0-|-3--3-3--3-3-3-3-|------------|-0--0-0--0-0-0-0-|
   d  d u d u   d  u d  d u d u   d  d u d u   d  u d  d u d u 




            
            
Suggest correction
Creating personal tab
Creating personal tab
You can edit any tab online and save it as your Personal.

You can edit, replace or remove any tab part or add personal notes – all changes will be seen only by you.

Personal tabs can be accessed anytime from any device, even offline.
Learn more »
Give kudos to tab author, rate the tab!
1 2 3 4 5
comments
print report bad tab
guest
You may want to rate the tab now too:
select rating
Wanna post a correction for this tab? Suggest correction