Oops, an error
Loading. Please wait.

Give Me Love Tab

version 1
version 1

Whole song

Interactive

Video

561,236 views 804 this week
17 commentsread comments
1 2 3 4 5
excellent!
x 149
add to favorites
launch autoscroll
font size
0
reset
how to read this tab
guitar tuner
Tab Pro tools
  • play this tab
  • loop segment
  • change instrument
  • show fretboard
  • metronome
×
Best way to learn
"Give Me Love"
Autoscroll
slow
fast
+/-
esc
set tempo
stop
Contributor
Difficulty
Capo
intermediate
1st fret
-Not my work-
Ed Sheeran - Give Me Love

*This is the recorded version - he plays it differently live*

Capo 1st fret
Single notes shown in brackets

e|--------------------------------------------------------------------------|
B|--------------------------------------------------------------------------|
G|--------------------------------------------------------------------------|
D|--------------------------------------------------------------------------|
A|--3-------0---------------------------------------------------------------|
E|-----3-4------------------------------------------------------------------|


[Intro and verses]

Am  (e) F C  C/B

Give me love like her, 'cause lately I've been waking up alone, Paint
Splattered teardrops on my shirt, Told you I'd let them go,


[Bridges]

Dm F  C  G/B  Dm (e) F

And that I'll Fight my corner, Maybe tonight I'll call ya, after my blood turns into
Alcohol, No I just wanna hold ya.


[Chorus]

||: C Dm F :||  x 3  Am G F

e|----------------------------------------------------------|
B|----------------------------------------------------------|
G|----------------------------------------------------------|x3
D|----------------------------------------------------------|
A|---0-0-------3-3-3-3-3-3----------------------------------| 
E|-3-----1-1-1----------------------------------------------|

e|----------------------------------------------------------|
B|----------------------------------------------------------|
G|----------------------------------------------------------|
D|----------------------------------------------------------|
A|---0-0-------3--------------------------------------------|
E|-3-----1-1-1----------------------------------------------|


Give a little time to me, or burn this out, We'll play hide and seek to
Turn this around, And all I want is the taste that your lips allow, My, my,
My, my, oh give me love, my, my, my, my, oh give me love, My, my, my, my,
Oh give me love, my, my, my, my, oh give me love, My, my, my, my, oh give
Me love.


[Verse]

Give me love like never before, 'cause lately I've been craving more, And
It's been a while but I still feel the same, Maybe I should let you go,


[Bridge]

You Know I'll fight my corner, And that tonight I'll call ya, After my blood is
Drowning in alcohol, No I just wanna hold ya.


[Longer Chorus]

||: C Dm F :||  x 3  Am G F
||: C Dm F :||  x 3  Am G F

e|----------------------------------------------------------|
B|----------------------------------------------------------|
G|----------------------------------------------------------|x4
D|----------------------------------------------------------|
A|---------------------3-x-3-x-x-3-x-3-x-3------------------|  
E|-5-x-5-x-x-1-x-1-x-x--------------------------------------|


*The next part has three guitars parts I think and is tricky to work out so I'll leave 
it here.. peace out*

Give a little time to me, or burn this out, We'll play hide and seek to
Turn this around, And all I want is the taste that your lips allow, my, my,
My, my, Oh give me love, give a little time to me, or burn this out, We'll
Play hide and seek to turn this around, And all I want is the taste that
Your lips allow, My, my, my, my, oh give me love, my, my, my, my, oh give
Me love, my, my, my, my, oh give me love, my, my, my, my, oh give me love,
My my, my, my, oh give me love.

M-my my, m-my my, m-my my, give me love, lover, M-my my, m-my my, m-my my,
Give me love, lover, M-my my, m-my my, m-my my, give me love, lover, M-my
My, m-my my, m-my my, give me love, lover.

M-my my, m-my my, m-my my, give me love, lover, M-my my, m-my my, m-my my,
Give me love, lover, M-my my, m-my my, m-my my, give me love, lover, M-my
My, m-my my, m-my my, give me love, lover (Love me, love me, love me).

M-my my, m-my my, m-my my, give me love, lover (give me love), M-my my,
M-my my, m-my my, give me love, lover (give me love), M-my my, m-my my,
M-my my, give me love, lover (give me love, love me), M-my my, m-my my,
M-my my, give me love, lover (give me love).

My, my, my, my, Oh give me love, My, my, my, my, Oh give me love, My, my,
My, my, Oh give me love, My, my, my, my, Oh give me love


***********************************
| x   Dead note
***********************************
comments
print report bad tab
17 comments total. Showing first comments.
0 reply
buzzer2607 wrote on January 21 2012, 03:51 pm

Spot on. Well done.

+5 reply
aaaron5 wrote on April 3 2012, 06:49 am

It's an amazing tab for an amazing song, although
I disagree with one chord in the chorus,
To me, it sounds more like this:

||: C Dm F :|| x 3 Am F C

And on a side note,
I play the F chord with an open high E; like so
- 133210

+5 reply
ginas94 wrote on April 21 2012, 10:46 am

What are the shapes for C/B and G/B? Also, how do the chord fit around the lyrics as can't quite work it out

I want to post or [tab]
guest
You may want to rate the tab now too:
select rating
Please do not post tabs as comments. Select "correction" instead!