Oops, an error
Loading. Please wait.
We have Chord Pro version of Give Me Love.
It's the closest thing you can get to the original song and it has interactive parts. Check out the tab »
×

Give Me Love tab

version 3
version 3

Whole song

Interactive

Video

23,725 views 63 this week
no commentswrite comment
1 2 3 4 5
x 9
add to favorites
×
Save as Personal and add changes to this tab that will be seen only by you. Learn more ›
×
You can save this tab as Personal to edit and correct it or add notes. All changes will be seen only by you. Learn more »
launch autoscroll
font size
0
reset
how to read this tab
guitar tuner
edit
Autoscroll
slow
fast
+/-
esc
set tempo
stop
Ed Sheeran - Give me Love
Standard Tuning
Capo on 1st

[Intro]
e|---------|-----0-0-0----0------1-1-1----1-1--0---0--0---0----0-----0-----|
B|---------|-----1-1-1----1------1-1-1----1-1--1---1--1---3p1--1-----1-----|
G|---------|-----2-2-2----2------2-2-2----2-2--0---0--0---0----0-----0-----|
D|---------|-----2-2-2----2------3-3-3----3-3--3p2-2--0h2-2----2-----2-----|
A|-3-------|--0--0-0-0-0--0------3-3-3----3-3--3---3--0h3-3----3--3--3--2--|
E|---3--4--|----------------0-1--------1-----------------------------------|
(In the groups of three chords (for instance the fifth notes played) play them with a 
downward stroke,
upward stroke, then downward stroke again to make it easier to play quickly and fluently.)
(Repeat the second section between the two double lines until the pre chorus below.)

[Pre-Chorus]
e|----1-1-1----1-1-1----1-1-1----1--1----1-1-1----1-1-1----1-1-1----1--1--0----0--0---0--0---0--0---0--|
B|----3-3-3----3-3-3----3-3-3----3--3----1-1-1----1-1-1----1-1-1----1--1--1----1--1---1--1---1--1---1--|
G|----2-2-2----2-2-2----2-2-2----2--2----2-2-2----2-2-2----2-2-2----2--2--0----0--0---0--0---0--0---0--|
D|-0--0-0-0-0--0-0-0-0--0-0-0-0--0--0----3-3-3----3-3-3----3-3-3----3--3--3p2--2--0h2-2--0h2-2--0h2-2--|
A|------------------------------------------------------------------------3----3--3---3--3---3--3---3--|
E|------------------------------------1--------1--------1--------1-------------------------------------|

e|----3-3-3-3---3-3-3----3-3-3-3---3--3--3----1-1-1---0-0-1-1------|
B|----0-0-0-0---0-0-0----0-0-0-0---0--0--0----3-3-3---0-0-1-1------|
G|----0-0-0-0---0-0-0----0-0-0-0---0--0--0----2-2-2---2-2-2-2------|
D|-----------------------------------------0--0-0-0---0-0-3-3------|
A|-----------------------------------------------------------------|
E|-3------------------3--------------------------------------------|
(Using the same idea as with the intro/verse, play the groups of chords with alternate strumming.)
(Play this section only once and proceed to the chorus below.)

[Chorus]
e|-0----0-0-0-3----3-3-3-1----1-1-1-1----1-1-1-|       e|-0----0-0-0-3----3-3-3-1----1-1-1-1----1-1-1-|
B|-1----1-1-1-0----0-0-0-1----1-1-1-1----1-1-1-|       B|-1----1-1-1-0----0-0-0-1----1-1-1-1----1-1-1-|
G|-0----0-0-0-0----0-0-0-2----2-2-2-2----2-2-2-|       G|-2----2-2-2-0----0-0-0-2----2-2-2-2----2-2-2-|
D|-2----2-2-2-0----0-0-0-3----3-3-3-3----3-3-3-|(x3)   D|-2----2-2-2-0----0-0-0-3----3-3-3-3----3-3-3-|
A|-2----2-2-2-0----0-0-0-3----3-3-3-3----3-3-3-|(x1)   A|-0----0-0-0-2----2-2-2-3----3-3-3-3----3-3-3-|
E|-3----3-3-3-2----2-2-2-3----3-3-3-3----3-3-3-|       E|------------3----3-3-3-1----1-1-1-1----1-1-1-|
                                                       
e|-------------------------------------|      e|-----------------------------------|
B|-------------------------------------|      B|-----------------------------------|
G|-------------------------------------|      G|-----------------------------------|
D|-------------------------------------|(x3)  D|-----------------------------------|
A|-0--0--0-----------3--3--3--3--3--3--|      A|-0--0--0-----------3---------------|
E|----------1--1--1--------------------|      E|----------1--1--1------------------|
(In the last section of the chorus let the final C note ring.)
(Repeat the whole thing again but this time, in the chorus, do the first two sections 
twice and do the second
two sections with a more syncopated rhythm if possible.)
(What follows is basically Ed Sheeran going crazy, well not really but yaknow, so is the 
same thing repeated
many times. Again this has a syncopated rhythm.)

e|---------------------------------------|
B|---------------------------------------|
G|---------------------------------------|
D|---------------------------------------|(x4)
A|-0--0-0--0-0--0-0--0-0--0-0--0---------|
E|-------------------------------3--3--3-|

e|---------------------------------------|
B|---------------------------------------|
G|---------------------------------------|
D|-2--2-2--2-2--2-2--2-2--2-2--2---------|(x3)
A|-0--0-0--0-0--0-0--0-0--0-0--0-2--2--2-|
E|-------------------------------3--3--3-|

e|-0---0-0-0-0---0-0-0-0---0-0-0-3--3--3-|
B|-1---1-1-1-1---1-1-1-1---1-1-1-0--0--0-|
G|-2---2-2-2-2---2-2-2-2---2-2-2-0--0--0-|
D|-2---2-2-2-2---2-2-2-2---2-2-2-0--0--0-|(x5)
A|-0---0-0-0-0---0-0-0-0---0-0-0-2--2--2-|
E|-------------------------------3--3--3-|
(This then goes into another variation of the mama thing he does.)

e|-0-----0-0----1------1-1-----0-----0-0-----0-0-----0-0--|
B|-1-----1-1----1------1-1-----1-----1-1-----1-1-----1-1--|
G|-0-----0-0----2------2-2-----0-----0-0-----0-0-----0-0--|
D|-2-----2-2----3------3-3-----2-----2-2-----2-2-----2-2--|(x1)
A|-3-----3-3----3------3-3-----3-----3-3-----3-3-----3-3--|
E|--------------1------1-1--------------------------------|

e|-0-----0-0----1------1-1-----0-----0-0-----0-0-----0-0--|
B|-1-----1-1----1------1-1-----1-----1-1-----1-1-----1-1--|
G|-2-----2-2----2------2-2-----0-----0-0-----0-0-----0-0--|
D|-2-----2-2----3------3-3-----2-----2-2-----2-2-----2-2--|(x3)
A|-0-----0-0----3------3-3-----3-----3-3-----3-3-----3-3--|
E|--------------1------1-1--------------------------------|

e|--------------------------------------------------------|
B|--------------------------------------------------------|
G|--------------------------------------------------------|
D|--------------3-----------------------------------------|(x2)
A|-0---------------------------3--------------------------|
E|--------------------------------------------------------|

Oh give me lo-o-oveee...

************************************

| p  Pull-off
| h  Hammer-on


************************************

            
            
Suggest correction
Creating personal tab
Creating personal tab
You can edit any tab online and save it as your Personal.

You can edit, replace or remove any tab part or add personal notes – all changes will be seen only by you.

Personal tabs can be accessed anytime from any device, even offline.
Learn more »
comments
print report bad tab
guest
You may want to rate the tab now too:
select rating
Wanna post a correction for this tab? Suggest correction