Oops, an error
Loading. Please wait.

Hearts Dont Break Around Here tab

version 1
version 1

Whole song

  • Once the finger picking style is practised and the... Show more
5,665 views 189 this week
no commentswrite comment
1 2 3 4 5
x 6
add to favorites
×
Save as Personal and add changes to this tab that will be seen only by you. Learn more ›
×
You can save this tab as Personal to edit and correct it or add notes. All changes will be seen only by you. Learn more »
launch autoscroll
font size
0
reset
how to read this tab
guitar tuner
edit
Autoscroll
slow
fast
+/-
esc
set tempo
stop
About this tab version
Once the finger picking style is practised and the chord progression is memorised the rest of the tab isnt required. This tab is bassed on the album released version of the song: https://www.youtube.com/watch?v=20pAJPNaAyw . Was this info helpful? Yes No
[Intro]
       C                C               C              G            Am             Am
e|--------------|----------------|--------------|-------------|-------------|--------------|
B|-----------1--|-------------1--|-----------1--|----------0--|----------1--|-----------1--|
G|------0-------|------ 0--------|-------0------|------0------|------0------|------0-------|
D|----2---2-----| ---2----2------|-----2---2----|----0---0----|----2---2----|----2---2-----|
A|-3------------|--3-------------|--3-----------|-------------|--0----------|--0-----------|
E|--------------|----------------|--------------|--3----------|-------------|--------------|

                 She is the sweetest thing that i know...
        F               F
e|---------------|---------------||
B|------------1--|------------1--||
G|--------2------|--------2------||    X4
D|--3--3----3----|--3--3----3----||
A|---------------|---------------||
E|---------------|---------------||    

    When the lights go low...

[Verse]
       F               F                C              C              G            G
e|---------------|--------------|---------------|--------------|-------------|--------------|
B|------------1--|-----------1--|------------1--|-----------1--|----------0--|----------0---|
G|--------2------|-------2------|--------0------|------0-------|------0------|------0-------|
D|--3--3----3----|--3--3---3----|-----2----2----|----2---2-----|----0---0----|----0---0-----|
A|---------------|--------------|--3------------|--3-----------|-------------|--------------|
E|---------------|--------------|---------------|--------------|--3----------|--3-----------|

             Daisy's... Daisy's....                            Perched upon your forehead....

e|-------------|-----------|--------------|-------------|------------|------------|---x------------|
B|----------1--|--------0--|-----------1--|----------1--|---------1--|---------1--|---0------------|
G|------0------|-----0-----|-------2------|------2------|-----0------|-----0------|---0------------|
D|----2---2----|---0---0---|--3--3---3----|-3--3---3----|---2---2----|---2---2----|---0------------|
A|--0----------|-----------|--------------|-------------|-3----------|-3----------|---x------------|
E|-------------|-3---------|--------------|-------------|------------|------------|---3------------|

              Lately i know......

[Chorus]
       C                C               C              G            Am             Am
e|--------------|----------------|--------------|-------------|-------------|--------------|
B|-----------1--|-------------1--|-----------1--|----------0--|----------1--|-----------1--|
G|------0-------|------ 0--------|-------0------|------0------|------0------|------0-------|
D|----2---2-----| ---2----2------|-----2---2----|----0---0----|----2---2----|----2---2-----|
A|-3------------|--3-------------|--3-----------|-------------|--0----------|--0-----------|
E|--------------|----------------|--------------|--3----------|-------------|--------------|

                 That every night I'll kiss you you'll say in my ear....
        F               F
e|---------------|---------------||
B|------------1--|------------1--||
G|--------2------|--------2------||    X4
D|--3--3----3----|--3--3----3----||
A|---------------|---------------||
E|---------------|---------------||    

                                    

      C                C               C              G            Am             Am
e|--------------|----------------|--------------|-------------|-------------|--------------|
B|-----------1--|-------------1--|-----------1--|----------0--|----------1--|-----------1--|
G|------0-------|------ 0--------|-------0------|------0------|------0------|------0-------|
D|----2---2-----| ---2----2------|-----2---2----|----0---0----|----2---2----|----2---2-----|
A|-3------------|--3-------------|--3-----------|-------------|--0----------|--0-----------|
E|--------------|----------------|--------------|--3----------|-------------|--------------|

                             Oh yea yea yea....   Yea yea yea yea....
        F               F
e|---------------|---------------||
B|------------1--|------------1--||
G|--------2------|--------2------||    X2
D|--3--3----3----|--3--3----3----||
A|---------------|---------------||
E|---------------|---------------||

[Verse]
       C                C               C              G            Am             Am
e|--------------|----------------|--------------|-------------|-------------|--------------|
B|-----------1--|-------------1--|-----------1--|----------0--|----------1--|-----------1--|
G|------0-------|------ 0--------|-------0------|------0------|------0------|------0-------|
D|----2---2-----| ---2----2------|-----2---2----|----0---0----|----2---2----|----2---2-----|
A|-3------------|--3-------------|--3-----------|-------------|--0----------|--0-----------|
E|--------------|----------------|--------------|--3----------|-------------|--------------|

                 She is the river flow in orwell....
        F               F
e|---------------|---------------||
B|------------1--|------------1--||
G|--------2------|--------2------||    X4
D|--3--3----3----|--3--3----3----||
A|---------------|---------------||
E|---------------|---------------||   


       F               F                C              C              G            G
e|---------------|--------------|---------------|--------------|-------------|--------------|
B|------------1--|-----------1--|------------1--|-----------1--|----------0--|----------0---|
G|--------2------|-------2------|--------0------|------0-------|------0------|------0-------|
D|--3--3----3----|--3--3---3----|-----2----2----|----2---2-----|----0---0----|----0---0-----|
A|---------------|--------------|--3------------|--3-----------|-------------|--------------|
E|---------------|--------------|---------------|--------------|--3----------|--3-----------|

            Oh roses, roses                             laid upon your bedspread....

e|-------------|-----------|--------------|-------------|------------|------------|---x------------|
B|----------1--|--------0--|-----------1--|----------1--|---------1--|---------1--|---0------------|
G|------0------|-----0-----|-------2------|------2------|-----0------|-----0------|---0------------|
D|----2---2----|---0---0---|--3--3---3----|-3--3---3----|---2---2----|---2---2----|---0------------|
A|--0----------|-----------|--------------|-------------|-3----------|-3----------|---x------------|
E|-------------|-3---------|--------------|-------------|------------|------------|---3------------|

              hold this, hold this i know.....

[Chorus]
       C                C               C              G            Am             Am
e|--------------|----------------|--------------|-------------|-------------|--------------|
B|-----------1--|-------------1--|-----------1--|----------0--|----------1--|-----------1--|
G|------0-------|------ 0--------|-------0------|------0------|------0------|------0-------|
D|----2---2-----| ---2----2------|-----2---2----|----0---0----|----2---2----|----2---2-----|
A|-3------------|--3-------------|--3-----------|-------------|--0----------|--0-----------|
E|--------------|----------------|--------------|--3----------|-------------|--------------|

               every night ill kiss you....
        F               F
e|---------------|---------------||
B|------------1--|------------1--||
G|--------2------|--------2------||    X4
D|--3--3----3----|--3--3----3----||
A|---------------|---------------||
E|---------------|---------------||

                                     oh yea yea yea...

[bridge]
      F               F                C              C              G            G
e|---------------|--------------|---------------|--------------|-------------|--------------|
B|------------1--|-----------1--|------------1--|-----------1--|----------0--|----------0---|
G|--------2------|-------2------|--------0------|------0-------|------0------|------0-------|
D|--3--3----3----|--3--3---3----|-----2----2----|----2---2-----|----0---0----|----0---0-----|
A|---------------|--------------|--3------------|--3-----------|-------------|--------------|
E|---------------|--------------|---------------|--------------|--3----------|--3-----------|

            Oh i found love in the inside.....

e|-------------|-----------|--------------|-------------|------------|------------|---x------------|
B|----------1--|--------0--|-----------1--|----------1--|---------1--|---------1--|---0------------|
G|------0------|-----0-----|-------2------|------2------|-----0------|-----0------|---0------------|
D|----2---2----|---0---0---|--3--3---3----|-3--3---3----|---2---2----|---2---2----|---0------------|  X4
A|--0----------|-----------|--------------|-------------|-3----------|-3----------|---x------------|
E|-------------|-3---------|--------------|-------------|------------|------------|---3------------|



[Chorus]

       C                C               C              G            Am             Am
e|--------------|----------------|--------------|-------------|-------------|--------------|
B|-----------1--|-------------1--|-----------1--|----------0--|----------1--|-----------1--|
G|------0-------|------ 0--------|-------0------|------0------|------0------|------0-------|
D|----2---2-----| ---2----2------|-----2---2----|----0---0----|----2---2----|----2---2-----|
A|-3------------|--3-------------|--3-----------|-------------|--0----------|--0-----------|
E|--------------|----------------|--------------|--3----------|-------------|--------------|

               every night ill kiss you....
        F               F
e|---------------|---------------||
B|------------1--|------------1--||
G|--------2------|--------2------||    X4
D|--3--3----3----|--3--3----3----||
A|---------------|---------------||
E|---------------|---------------||

                                      oh yea yea yea...
 
       C                C               C              G            Am             Am
e|--------------|----------------|--------------|-------------|-------------|--------------|
B|-----------1--|-------------1--|-----------1--|----------0--|----------1--|-----------1--|
G|------0-------|------ 0--------|-------0------|------0------|------0------|------0-------|
D|----2---2-----| ---2----2------|-----2---2----|----0---0----|----2---2----|----2---2-----|
A|-3------------|--3-------------|--3-----------|-------------|--0----------|--0-----------|
E|--------------|----------------|--------------|--3----------|-------------|--------------|

               every night ill kiss you....
        F               F
e|---------------|---------------|
B|------------1--|------------1--|
G|--------2------|--------2------|    X4
D|--3--3----3----|--3--3----3----|
A|---------------|---------------|
E|---------------|---------------|

                                      oh yea yea yea...

       C                C               C              G            Am             Am
e|--------------|----------------|--------------|-------------|-------------|--------------|
B|-----------1--|-------------1--|-----------1--|----------0--|----------1--|-----------1--|
G|------0-------|------ 0--------|-------0------|------0------|------0------|------0-------|
D|----2---2-----| ---2----2------|-----2---2----|----0---0----|----2---2----|----2---2-----|
A|-3------------|--3-------------|--3-----------|-------------|--0----------|--0-----------|
E|--------------|----------------|--------------|--3----------|-------------|--------------|

               you know hearts don break around here...
        F               F
e|---------------|---------------|---0---------||
B|------------1--|------------1--|---1---------||
G|--------2------|--------2------|---0---------||   
D|--3--3----3----|--3--3----3----|---2---------||
A|---------------|---------------|---3---------||
E|---------------|---------------|---0---------||

               oh yea yea yea yea 
Suggest correction
Creating personal tab
Creating personal tab
You can edit any tab online and save it as your Personal.

You can edit, replace or remove any tab part or add personal notes – all changes will be seen only by you.

Personal tabs can be accessed anytime from any device, even offline.
Learn more »
comments
print report bad tab
guest
You may want to rate the tab now too:
select rating
Wanna post a correction for this tab? Suggest correction