Oops, an error
Loading. Please wait.

Hearts Dont Break Around Here tab

version 2
version 2

Whole song

  • Once the finger picking style is practised and the... Show more
70 views 39 this week
no commentswrite comment
1 2 3 4 5
3 more votes to show rating
add to favorites
×
Save as Personal and add changes to this tab that will be seen only by you. Learn more ›
×
You can save this tab as Personal to edit and correct it or add notes. All changes will be seen only by you. Learn more »
launch autoscroll
font size
0
reset
how to read this tab
guitar tuner
edit
Autoscroll
slow
fast
+/-
esc
set tempo
stop
[Intro]
e|--------------------------------------------------|
B|--1-----------1-----------1-----------1-----------|
G|-----0-----0-----0-----0-----0-----0-----2-----0--|
D|--------2-----------0-----------2-----3-----0-----|
A|--3-----------3-----------0-----------------------|
E|--------------------3-----------------------3-----|

[Verse]
e|----------------------------------------------------------------------------|
B|-----------------1-----------------1-------------------1-----------------0--|
G|-----------0-----------------0-------------------0-----------------0--------|
D|--------------------2-----2-----2-----0h2-----2-----2-----------------------|
A|--3-----3-----3-------------------------------------------------------------|
E|----------------------------------------------------------3-----3-----3-----|

e|------------------------------------------------------------------------------|
B|-----------------1-----------------1-------------------1-------------------1--|
G|-----------0-----------------0--------0h2--------2--------2p0--------0--------|
D|--------------------2-----2-----2-----3-------3-----3-----3-------3-----3-----|
A|--0-----0-----0---------------------------------------------------------------|
E|------------------------------------------------------------------------------|

She is the sweetest thing that I know
You should see the way she holds me when the lights go low
Shakes my soul like a pot hole, every time
Took my heart upon a one way trip
Guess she went wandering off with it
Unlike most women I know
This one will bring it back whole

[Pre-Chorus]
e|--------------------------------------------------------------------------|
B|-----------------1-----------------1-----------------1-----------------1--|
G|-----------2-----------------2-----------------0-----------------0--------|
D|--3-----3-----3-----3-----3-----3-----------------------2-----2-----2-----|
A|--------------------------------------3-----3-----3-----------------------|
E|--------------------------------------------------------------------------|

e|--------------------------------------------------------------------------|
B|-----------------1-----------------0-----------------1-----------------0--|
G|-----------0-----------------0-----------------0-----------------0--------|
D|--------------------0-----0-----0-----------------------------------------|
A|--------------------------------------0-----0-----0-----------------------|
E|--3-----3-----3-----------------------------------------3-----3-----3-----|

Daisies, daisies perched upon your forehead
Oh my baby, lately I know

[Chorus]
e|----------------------------------------------------------------------------|
B|-----------------1-----------------1-------------------1-----------------0--|
G|-----------0-----------------0-------------------0-----------------0--------|
D|--------------------2-----2-----2-----0h2-----2-----2-----------------------|
A|--3-----3-----3-------------------------------------------------------------|
E|----------------------------------------------------------3-----3-----3-----|

e|--------------------------------------------------------------------------|
B|-----------------1-----------------1-----------------1-----------------1--|
G|-----------0-----------------0-----------------2-----------------0--------|
D|--------------------2-----2-----2-----3-----3-----3-----------------------|
A|--0-----0-----0-----------------------------------------------------------|
E|--------------------------------------------------------3-----3-----3-----|

e|--------------------------------------------------------------------------|
B|--------------------------------------------------------------------------|
G|--------------------------------------------------------------------------|
D|-----------------0-----------------0-----------------0-----------------0--|
A|-----------2-----------------2-----------------2-----------------2--------|
E|--1-----1-----1-----1-----1-----1-----1-----1-----1-----1-----1-----1-----|

That every night I'll kiss you you'll say in my ear
Oh we're in love aren't we?
Hands in your hair, fingers and thumbs baby
I feel safe when you're holding me near
Love the way that you conquer your fear
You know hearts don't break around here
Oh yeah yeah yeah , yeah yeah yeah yeah
Yeah yeah yeah yeah

[Verse]
e|----------------------------------------------------------------------------|
B|-----------------1-----------------1-------------------1-----------------0--|
G|-----------0-----------------0-------------------0-----------------0--------|
D|--------------------2-----2-----2-----0h2-----2-----2-----------------------|
A|--3-----3-----3-------------------------------------------------------------|
E|----------------------------------------------------------3-----3-----3-----|

e|------------------------------------------------------------------------------|
B|-----------------1-----------------1-------------------1-------------------1--|
G|-----------0-----------------0--------0h2--------2--------2p0--------0--------|
D|--------------------2-----2-----2-----3-------3-----3-----3-------3-----3-----|
A|--0-----0-----0---------------------------------------------------------------|
E|------------------------------------------------------------------------------|

She is the river flow in Orwell
And tin wind chimes used for doorbells
Fields and trees and her smell, fill my lungs
Spent my summer time beside her
And the rest of the year the same
She is the flint that sparks the lighter
And the fuel that will hold the flame

[Pre-Chorus]
e|--------------------------------------------------------------------------|
B|-----------------1-----------------1-----------------1-----------------1--|
G|-----------2-----------------2-----------------0-----------------0--------|
D|--3-----3-----3-----3-----3-----3-----------------------2-----2-----2-----|
A|--------------------------------------3-----3-----3-----------------------|
E|--------------------------------------------------------------------------|

e|--------------------------------------------------------------------------|
B|-----------------1-----------------0-----------------1-----------------0--|
G|-----------0-----------------0-----------------0-----------------0--------|
D|--------------------0-----0-----0-----------------------------------------|
A|--------------------------------------0-----0-----0-----------------------|
E|--3-----3-----3-----------------------------------------3-----3-----3-----|

Oh roses roses laid upon your bed spread
Oh my, hold this, oh this, I know

[Chorus]
e|----------------------------------------------------------------------------|
B|-----------------1-----------------1-------------------1-----------------0--|
G|-----------0-----------------0-------------------0-----------------0--------|
D|--------------------2-----2-----2-----0h2-----2-----2-----------------------|
A|--3-----3-----3-------------------------------------------------------------|
E|----------------------------------------------------------3-----3-----3-----|

e|--------------------------------------------------------------------------|
B|-----------------1-----------------1-----------------1-----------------1--|
G|-----------0-----------------0-----------------2-----------------0--------|
D|--------------------2-----2-----2-----3-----3-----3-----------------------|
A|--0-----0-----0-----------------------------------------------------------|
E|--------------------------------------------------------3-----3-----3-----|

e|--------------------------------------------------------------------------|
B|--------------------------------------------------------------------------|
G|--------------------------------------------------------------------------|
D|-----------------0-----------------0-----------------0-----------------0--|
A|-----------2-----------------2-----------------2-----------------2--------|
E|--1-----1-----1-----1-----1-----1-----1-----1-----1-----1-----1-----1-----|

That every night I'll kiss you you'll say in my ear
Oh we're in love aren't we?
Hands in your hair, fingers and thumbs baby
I feel safe when you're holding me near
Love the way that you conquer your fear
You know hearts don't break around here
Oh yeah yeah yeah

[Bridge]
e|--------------------------------------------------------------------------|
B|-----------------1-----------------1-----------------1-----------------1--|
G|-----------2-----------------2-----------------0-----------------0--------|
D|--3-----3-----3-----3-----3-----3-----------------------2-----2-----2-----|
A|--------------------------------------3-----3-----3-----------------------|
E|--------------------------------------------------------------------------|

e|--------------------------------------------------------------------------|
B|-----------------1-----------------0-----------------1-----------------0--|
G|-----------0-----------------0-----------------0-----------------0--------|
D|--------------------0-----0-----0-----------------------------------------|
A|--------------------------------------0-----0-----0-----------------------|
E|--3-----3-----3-----------------------------------------3-----3-----3-----|

e|--------------------------------------------------------------------------|
B|--------------------------------------------------------------------------|
G|--------------------------------------------------------------------------|
D|-----------------0-----------------0-----------------0-----------------0--|
A|-----------2-----------------2-----------------2-----------------2--------|
E|--1-----1-----1-----1-----1-----1-----1-----1-----1-----1-----1-----1-----|

e|--------------------------------------------------------------------------|
B|--------------------------------------------------------------------------|
G|--------------------------------------------------------------------------|
D|-----------------0-----------------0-----------------0-----------------0--|
A|-----------5-----------------5-----------------5-----------------5--------|
E|--3-----3-----3-----3-----3-----3-----3-----3-----3-----3-----3-----3-----|

Well I found love in the inside
The arms of a woman I know
She is the lighthouse in the night that will safely guide me home
And I'm not scared of passing over
Or the thought of growing old
'Cause from now until I go

[Chorus]
e|----------------------------------------------------------------------------|
B|-----------------1-----------------1-------------------1-----------------0--|
G|-----------0-----------------0-------------------0-----------------0--------|
D|--------------------2-----2-----2-----0h2-----2-----2-----------------------|
A|--3-----3-----3-------------------------------------------------------------|
E|----------------------------------------------------------3-----3-----3-----|

e|--------------------------------------------------------------------------|
B|-----------------1-----------------1-----------------1-----------------1--|
G|-----------0-----------------0-----------------2-----------------0--------|
D|--------------------2-----2-----2-----3-----3-----3-----------------------|
A|--0-----0-----0-----------------------------------------------------------|
E|--------------------------------------------------------3-----3-----3-----|

e|--------------------------------------------------------------------------|
B|--------------------------------------------------------------------------|
G|--------------------------------------------------------------------------|
D|-----------------0-----------------0-----------------0-----------------0--|
A|-----------2-----------------2-----------------2-----------------2--------|
E|--1-----1-----1-----1-----1-----1-----1-----1-----1-----1-----1-----1-----|

Every night I'll kiss you you'll say in my ear
Oh we're in love aren't we?
Hands in your hair, fingers and thumbs baby
I feel safe when you're holding me near
Love the way that you conquer your fear
You know hearts don't break around here
Oh yeah yeah

[Chorus]
e|----------------------------------------------------------------------------|
B|-----------------1-----------------1-------------------1-----------------0--|
G|-----------0-----------------0-------------------0-----------------0--------|
D|--------------------2-----2-----2-----0h2-----2-----2-----------------------|
A|--3-----3-----3-------------------------------------------------------------|
E|----------------------------------------------------------3-----3-----3-----|

e|--------------------------------------------------------------------------|
B|-----------------1-----------------1-----------------1-----------------1--|
G|-----------0-----------------0-----------------2-----------------0--------|
D|--------------------2-----2-----2-----3-----3-----3-----------------------|
A|--0-----0-----0-----------------------------------------------------------|
E|--------------------------------------------------------3-----3-----3-----|

e|--------------------------------------------------------------------------|
B|--------------------------------------------------------------------------|
G|--------------------------------------------------------------------------|
D|-----------------0-----------------0-----------------0-----------------0--|
A|-----------2-----------------2-----------------2-----------------2--------|
E|--1-----1-----1-----1-----1-----1-----1-----1-----1-----1-----1-----1-----|

Every night I'll kiss you you'll say in my ear
Oh we're in love aren't we?
Hands in your hair, fingers and thumbs baby
I feel safe when you're holding me near
Love the way that you conquer your fear
You know hearts don't break around here
Yeah yeah yeah
You know hearts don't break around here
Oh yeah yeah yeah yeah 



************************************

| h  Hammer-on
| p  Pull-off

************************************

            
            
Suggest correction
Creating personal tab
Creating personal tab
You can edit any tab online and save it as your Personal.

You can edit, replace or remove any tab part or add personal notes – all changes will be seen only by you.

Personal tabs can be accessed anytime from any device, even offline.
Learn more »
Give kudos to tab author, rate the tab!
1 2 3 4 5
comments
print report bad tab
guest
You may want to rate the tab now too:
select rating
Wanna post a correction for this tab? Suggest correction