Oops, an error
Loading. Please wait.

How Would You Feel solo tab

version 2
version 2

Solo

  • Solo to how would you feel how it's played in the ... Show more
  • This is the first solo tab.
  • It is a complete version of the solo, from start to end, spot on.
  • Much more accurate than the other versions. Note for note.

Whole song

  • Video lesson. Includes chords and tab including solo.
  • Easy to follow, fully structured and time-framed.
  • Fingerstyle arrangement for How would you feel (Paean) by Ed Sheeran.

Interactive

3,574 views 33 this week
5 commentsread comments
1 2 3 4 5
x 7
add to favorites
×
Save as Personal and add changes to this tab that will be seen only by you. Learn more ›
×
You can save this tab as Personal to edit and correct it or add notes. All changes will be seen only by you. Learn more »
launch autoscroll
font size
0
reset
how to read this tab
guitar tuner
edit
Autoscroll
slow
fast
+/-
esc
set tempo
stop
Author
About this tab version
This is the first solo tab. Was this info helpful? Yes No
How Would You Feel by Ed Sheeran Solo (Played by John Mayer)
Tabbed by Kenneth Wesley (www.kenneth-wesley.com)

Solo is fairly straight foreward. If you need a visual check out my YouTube channel (kennethwesley)
I'll have a solo on there.

e|--------------------------|-------------------------|
B|--------10---10--12b--12~-|-pbr12p10----------------|
G|--9--11----11-------------|---------------10--------|
D|--------------------------|-------------------------|
A|--------------------------|-------------------------|
E|--------------------------|-------------------------|

e|-------------------------12-|-----------------------|
B|--------10---10--12b--12~---|-pbr12p10-------10-----|
G|--9--11----11---------------|--------------10-------|
D|----------------------------|-----------------------|
A|----------------------------|-----------------------|
E|----------------------------|-----------------------|

e|--------------------------|--------17---------------|
B|--------10---10--12b--12~-|-17h19------17h19--17~---|
G|--9--11----11----------|----------------------------|
D|-------------------------|--------------------------|
A|-------------------------|--------------------------|
E|-------------------------|--------------------------|

e|--------------------------|-------------------------|
B|--------10---10--12b--12~-|-pbr12p10--12--10-10-----|
G|--9--11----11-------------|-------------------------|
D|--------------------------|-------------------------|
A|--------------------------|-------------------------|
E|--------------------------|-------------------------|

                           "We were sitting in a parked car"
e|-------------------------|-------------------------|
B|--10---------------------|-------------------------|
G|-----11-9----------------|-------------------------|
D|----------9-9h11~--------|---/9--7-----------------|
A|-------------------------|------------9------------|
E|-------------------------|-------------------------|

e|--------------------------|-------------------------|
B|--------------------------|-------------------------|
G|--------------------------|---9/11--9~--------------|
D|--9-7-9~------------------|-------------------------|
A|--------------------------|-------------------------|
E|--------------------------|-------------------------|

"How Would You Feel"

e|-------------------------|-------------------------|
B|----------17-------------|-------------------------|
G|--16b----------14--------|-------------------------|
D|-------------------------|-------------------------|
A|-------------------------|-------------------------|
E|-------------------------|-------------------------|

"If I Told You I Loved You"
e|---------17--------------|-------------------------|
B|-------------------------|-------------------------|
G|--16b---------14---------|-------------------------|
D|-------------------------|-------------------------|
A|-------------------------|-------------------------|
E|-------------------------|-------------------------|

"It's just something that I want to do"
e|---------17--------------|-------------------------|
B|-------------------------|-------------------------|
G|--16b---------14---------|-------------------------|
D|-------------------------|-------------------------|
A|-------------------------|-------------------------|
E|-------------------------|-------------------------|

"Taking my Time..."         "Spending me Life"
e|-------------------------|-------------------------|
B|-------------------------|-------------------------|
G|--16b--16----------------|-16b--16--------------14-|
D|-------------------------|-------------------------|
A|-------------------------|-------------------------|
E|-------------------------|-------------------------|

"Tell me that you love me too"
e|-------------------------|-------------------------|
B|-------17----------------|-------------------------|
G|---16b-----16p14h16------|---16----14--14----------|
D|-------------------------|-------------------------|
A|-------------------------|-------------------------|
E|-------------------------|-------------------------|


e|-------------------------|-------------------------|
B|-------------------------|-------------------------|
G|---16b----16----14/16----|--14--14-----------------|
D|-------------------------|-------------------------|
A|-------------------------|-------------------------|
E|-------------------------|-------------------------|

************************************

| p    Pull-off
| b    Bend
| pbr  Pre-bend release
| ~    Vibrato
| h    Hammer-on
| /    Slide up

************************************

            
            
Suggest correction
Creating personal tab
Creating personal tab
You can edit any tab online and save it as your Personal.

You can edit, replace or remove any tab part or add personal notes – all changes will be seen only by you.

Personal tabs can be accessed anytime from any device, even offline.
Learn more »
comments
print report bad tab
5 comments total. Showing first comments.
0 reply
kprod 10 Feb 18, 2017 10:11 AM

This is pretty accurate nice job!

0 reply
guitgod 10 Feb 18, 2017 10:14 AM

Nice tab sounds good

0 reply
LincM 787 Feb 22, 2017 05:55 PM

I _knew_ it was John Mayer playing. I've only listened to the song once, and had to google the solo. Most pages don't seem to acknowledge it, but it's so _obviously_ him.

Sorry, fan-geeking out.

guest
You may want to rate the tab now too:
select rating
Wanna post a correction for this tab? Suggest correction