Oops, an error
Loading. Please wait.

How Would You Feel chords

version 12
version 12

Whole song

  • Defined chords and acoustic riff, corrected chord ... Show more
  • Based on the studio version from the album "Divide".
  • More accurate chords, like the Bm7 and the Cadd9.
  • A Version made by me, No Capo, if its difficult fo... Show more
  • This is for the studio version of Ed Sheeran's son... Show more
  • This looks like how he plays the chords in the liv... Show more
  • Original Chords and Best Placed Chords.
  • This version has the chords that Ed Sheeran uses o... Show more
  • This Version is a mix of Tab/Chords though it is t... Show more

Interactive

Video

2,998 views 63 this week
no commentswrite comment
1 2 3 4 5
x 6
add to favorites
×
Save as Personal and add changes to this tab that will be seen only by you. Learn more ›
×
You can save this tab as Personal to edit and correct it or add notes. All changes will be seen only by you. Learn more »
launch autoscroll
font size
0
reset
transpose
0
reset
simplify chords
display chords
guitar tuner
edit
Autoscroll
slow
fast
+/-
esc
set tempo
stop
About this tab version
This Version is a mix of Tab/Chords though it is the way that Ed Sheeren plays it. Was this info helpful? Yes No
Strumming Is this strumming pattern correct? Yes No
120 bpm
1
&
2
&
3
&
4
&
5
&
6
&
7
&
8
&
9
&
10
Listen
Hi, This is Ed Sheeren's new song How Would You Feel. This version includes every part of it Except the Solo 
Sorry, If someone could commnt that down below, I'll add it.



[Intro]
   G          Bm7(#5)       Cadd9
e|------------------------|-------------------------|
B|-----0h3p0--------------|-------------------------|
G|-----0-----------0h2-p0-|-0----------0-0-0h2p0----|
D|---0-----------0--------|-0h2----0h2-----------0--|
A|------------2-----------|-3-----------------------|
E|-3----------------------|-------------------------|

   G          Bm7(#5)       Cadd9
e|------------------------|-------------------------|
B|-----0h3p0--------------|-------------------------|
G|-----0-----------0h2-p0-|-0-----------------------|
D|---0-----------0--------|-0h2---------------------|
A|------------2-----------|-3-----------------------|
E|-3----------------------|-------------------------|


[Verse 1]
 G           Bm      
You are the one, girl
 Cadd9
And you know that it's true

   G          Bm7(#5)       Cadd9
e|------------------------|-3--3--3--3--3-3-|-3--3--3--3--3-3-|
B|-----0h3p0--------------|-3--3--3--3--3-3-|-3--3--3--3--3-3-|
G|-----0-----------0h2-p0-|-0--0--0--0--0-0-|-0--0--0--0--0-0-|
D|---0-----------0--------|-0h22--2--2--2-2-|-2--2--2--2--2-2-|
A|------------2-----------|-3--3--3--3--3-3-|-3--3--3--3--3-3-|
E|-3----------------------|-----------------|-----------------|
 
 G           Bm
I'm feeling younger
 Cadd9
Every time that I'm alone with you

   G          Bm7(#5)       Cadd9
e|------------------------|-3--3--3--3--3-3-|-3--3--3--3--3-3-|
B|-----0h3p0--------------|-3--3--3--3--3-3-|-3--3--3--3--3-3-|
G|-----0-----------0h2-p0-|-0--0--0--0--0-0-|-0--0--0--0--0-0-|
D|---0-----------0--------|-0h22--2--2--2-2-|-2--2--2--2--2-2-|
A|------------2-----------|-3--3--3--3--3-3-|-3--3--3--3--3-3-|
E|-3----------------------|-----------------|-----------------|

[Pre-Chorus 1]
 Bm                   E7
We were sitting in a parked car
          E7                   
Stealing kisses in a front yard
  A7                  
We got questions we should not ask, but


[Chorus]
E7
How would you feel

   G          Bm7(#5)       Cadd9
e|------------------------|-3--3--3--3--3-3-|-3--3--3--3--3-3-|
B|-----0h3p0--------------|-3--3--3--3--3-3-|-3--3--3--3--3-3-|
G|-----0-----------0h2-p0-|-0--0--0--0--0-0-|-0--0--0--0--0-0-|
D|---0-----------0--------|-0h22--2--2--2-2-|-2--2--2--2--2-2-|
A|------------2-----------|-3--3--3--3--3-3-|-3--3--3--3--3-3-|
E|-3----------------------|-----------------|-----------------| 

 G                  Bm
If I told you I loved you

   G          Bm7(#5)       Cadd9
e|------------------------|-3--3--3--3--3-3-|-3--3--3--3--3-3-|
B|-----0h3p0--------------|-3--3--3--3--3-3-|-3--3--3--3--3-3-|
G|-----0-----------0h2-p0-|-0--0--0--0--0-0-|-0--0--0--0--0-0-|
D|---0-----------0--------|-0h22--2--2--2-2-|-2--2--2--2--2-2-|
A|------------2-----------|-3--3--3--3--3-3-|-3--3--3--3--3-3-|
E|-3----------------------|-----------------|-----------------|

 Cadd9
It's just something that I want to do

   G          Bm7(#5)       Cadd9
e|------------------------|-3--3--3--3--3-3-|-3--3--3--3--3-3-|
B|-----0h3p0--------------|-3--3--3--3--3-3-|-3--3--3--3--3-3-|
G|-----0-----------0h2-p0-|-0--0--0--0--0-0-|-0--0--0--0--0-0-|
D|---0-----------0--------|-0h22--2--2--2-2-|-2--2--2--2--2-2-|
A|------------2-----------|-3--3--3--3--3-3-|-3--3--3--3--3-3-|
E|-3----------------------|-----------------|-----------------|

Cadd9
I'll be taking my time
Am 
Spending my life
D
Falling deeper in love with you

   G          Bm7(#5)       Cadd9
e|------------------------|-3--3--3--3--3-3-|-3--3--3--3--3-3-|
B|-----0h3p0--------------|-3--3--3--3--3-3-|-3--3--3--3--3-3-|
G|-----0-----------0h2-p0-|-0--0--0--0--0-0-|-0--0--0--0--0-0-|
D|---0-----------0--------|-0h22--2--2--2-2-|-2--2--2--2--2-2-|
A|------------2-----------|-3--3--3--3--3-3-|-3--3--3--3--3-3-|
E|-3----------------------|-----------------|-----------------|
 
 Cadd9                      G
So tell me that you love me too

   G          Bm7(#5)       Cadd9
e|------------------------|-3--3--3--3--3-3-|-3--3--3--3--3-3-|
B|-----0h3p0--------------|-3--3--3--3--3-3-|-3--3--3--3--3-3-|
G|-----0-----------0h2-p0-|-0--0--0--0--0-0-|-0--0--0--0--0-0-|
D|---0-----------0--------|-0h22--2--2--2-2-|-2--2--2--2--2-2-|
A|------------2-----------|-3--3--3--3--3-3-|-3--3--3--3--3-3-|
E|-3----------------------|-----------------|-----------------|

[Verse 2]
Bm          Cadd9
In the summer
Cadd9
As the lilacs bloom

   G          Bm7(#5)       Cadd9
e|------------------------|-3--3--3--3--3-3-|-3--3--3--3--3-3-|
B|-----0h3p0--------------|-3--3--3--3--3-3-|-3--3--3--3--3-3-|
G|-----0-----------0h2-p0-|-0--0--0--0--0-0-|-0--0--0--0--0-0-|
D|---0-----------0--------|-0h22--2--2--2-2-|-2--2--2--2--2-2-|
A|------------2-----------|-3--3--3--3--3-3-|-3--3--3--3--3-3-|
E|-3----------------------|-----------------|-----------------|

G           Bm              Cadd9 
Blood flows deeper than a river
 Cadd9
Every moment that I spend with you

   G          Bm7(#5)       Cadd9
e|------------------------|-3--3--3--3--3-3-|-3--3--3--3--3-3-|
B|-----0h3p0--------------|-3--3--3--3--3-3-|-3--3--3--3--3-3-|
G|-----0-----------0h2-p0-|-0--0--0--0--0-0-|-0--0--0--0--0-0-|
D|---0-----------0--------|-0h22--2--2--2-2-|-2--2--2--2--2-2-|
A|------------2-----------|-3--3--3--3--3-3-|-3--3--3--3--3-3-|
E|-3----------------------|-----------------|-----------------|

[Pre-Chorus 2]
 Bm7                                Em
We were sat upon our best friend's roof
                               A7
I had both of my arms around you  
                                D
Watching the sunrise replace the moon, but


[Chorus]
D
How would you feel

   G          Bm7(#5)       Cadd9
e|------------------------|-3--3--3--3--3-3-|-3--3--3--3--3-3-|
B|-----0h3p0--------------|-3--3--3--3--3-3-|-3--3--3--3--3-3-|
G|-----0-----------0h2-p0-|-0--0--0--0--0-0-|-0--0--0--0--0-0-|
D|---0-----------0--------|-0h22--2--2--2-2-|-2--2--2--2--2-2-|
A|------------2-----------|-3--3--3--3--3-3-|-3--3--3--3--3-3-|
E|-3----------------------|-----------------|-----------------|

 Cadd9
If I told you I loved you

   G          Bm7(#5)       Cadd9
e|------------------------|-3--3--3--3--3-3-|-3--3--3--3--3-3-|
B|-----0h3p0--------------|-3--3--3--3--3-3-|-3--3--3--3--3-3-|
G|-----0-----------0h2-p0-|-0--0--0--0--0-0-|-0--0--0--0--0-0-|
D|---0-----------0--------|-0h22--2--2--2-2-|-2--2--2--2--2-2-|
A|------------2-----------|-3--3--3--3--3-3-|-3--3--3--3--3-3-|
E|-3----------------------|-----------------|-----------------|

  Cadd9
It's just something that I want to do

   G          Bm7(#5)       Cadd9
e|------------------------|-3--3--3--3--3-3-|-3--3--3--3--3-3-|
B|-----0h3p0--------------|-3--3--3--3--3-3-|-3--3--3--3--3-3-|
G|-----0-----------0h2-p0-|-0--0--0--0--0-0-|-0--0--0--0--0-0-|
D|---0-----------0--------|-0h22--2--2--2-2-|-2--2--2--2--2-2-|
A|------------2-----------|-3--3--3--3--3-3-|-3--3--3--3--3-3-|
E|-3----------------------|-----------------|-----------------|

Cadd9                  Am
I'll be taking my time
Am              D
Spending my life
(N.C)
Falling deeper in love with you

   G          Bm7(#5)       Cadd9
e|------------------------|-3--3--3--3--3-3-|-3--3--3--3--3-3-|
B|-----0h3p0--------------|-3--3--3--3--3-3-|-3--3--3--3--3-3-|
G|-----0-----------0h2-p0-|-0--0--0--0--0-0-|-0--0--0--0--0-0-|
D|---0-----------0--------|-0h22--2--2--2-2-|-2--2--2--2--2-2-|
A|------------2-----------|-3--3--3--3--3-3-|-3--3--3--3--3-3-|
E|-3----------------------|-----------------|-----------------|

Cadd9
So tell me that you love me too

   G          Bm7(#5)       Cadd9
e|------------------------|-3--3--3--3--3-3-|-3--3--3--3--3-3-|
B|-----0h3p0--------------|-3--3--3--3--3-3-|-3--3--3--3--3-3-|
G|-----0-----------0h2-p0-|-0--0--0--0--0-0-|-0--0--0--0--0-0-|
D|---0-----------0--------|-0h22--2--2--2-2-|-2--2--2--2--2-2-|
A|------------2-----------|-3--3--3--3--3-3-|-3--3--3--3--3-3-|
E|-3----------------------|-----------------|-----------------| 


[Bridge]

G Bm Cadd9 Cadd9
G Bm Cadd9 Cadd9
G Bm Cadd9 Cadd9
G Bm Cadd9 Cadd9


[Pre-Chorus 1]
 Bm7                                  Em
Yeah, we were sitting in a parked car
                               A7
Stealing kisses in a front yard                            
                              D
We got questions we should not ask


[Chorus]
(N.C)
How would you feel

   G          Bm7(#5)       Cadd9
e|------------------------|-3--3--3--3--3-3-|-3--3--3--3--3-3-|
B|-----0h3p0--------------|-3--3--3--3--3-3-|-3--3--3--3--3-3-|
G|-----0-----------0h2-p0-|-0--0--0--0--0-0-|-0--0--0--0--0-0-|
D|---0-----------0--------|-0h22--2--2--2-2-|-2--2--2--2--2-2-|
A|------------2-----------|-3--3--3--3--3-3-|-3--3--3--3--3-3-|
E|-3----------------------|-----------------|-----------------|

 Cadd9
If I told you I loved you

   G          Bm7(#5)       Cadd9
e|------------------------|-3--3--3--3--3-3-|-3--3--3--3--3-3-|
B|-----0h3p0--------------|-3--3--3--3--3-3-|-3--3--3--3--3-3-|
G|-----0-----------0h2-p0-|-0--0--0--0--0-0-|-0--0--0--0--0-0-|
D|---0-----------0--------|-0h22--2--2--2-2-|-2--2--2--2--2-2-|
A|------------2-----------|-3--3--3--3--3-3-|-3--3--3--3--3-3-|
E|-3----------------------|-----------------|-----------------|

Cadd9
It's just something that I want to do

   G          Bm7(#5)       Cadd9
e|------------------------|-3--3--3--3--3-3-|-3--3--3--3--3-3-|
B|-----0h3p0--------------|-3--3--3--3--3-3-|-3--3--3--3--3-3-|
G|-----0-----------0h2-p0-|-0--0--0--0--0-0-|-0--0--0--0--0-0-|
D|---0-----------0--------|-0h22--2--2--2-2-|-2--2--2--2--2-2-|
A|------------2-----------|-3--3--3--3--3-3-|-3--3--3--3--3-3-|
E|-3----------------------|-----------------|-----------------|

                      Am
I'll be taking my time
   Am           D
Spending my life
D
Falling deeper in love with you

   G          Bm7(#5)       Cadd9
e|------------------------|-3--3--3--3--3-3-|-3--3--3--3--3-3-|
B|-----0h3p0--------------|-3--3--3--3--3-3-|-3--3--3--3--3-3-|
G|-----0-----------0h2-p0-|-0--0--0--0--0-0-|-0--0--0--0--0-0-|
D|---0-----------0--------|-0h22--2--2--2-2-|-2--2--2--2--2-2-|
A|------------2-----------|-3--3--3--3--3-3-|-3--3--3--3--3-3-|
E|-3----------------------|-----------------|-----------------|
(N.C)
Tell me that you love me too

   G          Bm7(#5)       Cadd9
e|------------------------|-3--3--3--3--3-3-|-3--3--3--3--3-3-|
B|-----0h3p0--------------|-3--3--3--3--3-3-|-3--3--3--3--3-3-|
G|-----0-----------0h2-p0-|-0--0--0--0--0-0-|-0--0--0--0--0-0-|
D|---0-----------0--------|-0h22--2--2--2-2-|-2--2--2--2--2-2-|
A|------------2-----------|-3--3--3--3--3-3-|-3--3--3--3--3-3-|
E|-3----------------------|-----------------|-----------------|
(N.C)
Tell me that you love me too

   G          Bm7(#5)       Cadd9
e|------------------------|-3--3--3--3--3-3-|-3--3--3--3--3-3-|
B|-----0h3p0--------------|-3--3--3--3--3-3-|-3--3--3--3--3-3-|
G|-----0-----------0h2-p0-|-0--0--0--0--0-0-|-0--0--0--0--0-0-|
D|---0-----------0--------|-0h22--2--2--2-2-|-2--2--2--2--2-2-|
A|------------2-----------|-3--3--3--3--3-3-|-3--3--3--3--3-3-|
E|-3----------------------|-----------------|-----------------|
(N.C)
Tell me that you love me too

   G          Bm7(#5)       Cadd9*
e|------------------------|-3-|
B|-----0h3p0--------------|-3-|
G|-----0-----------0h2-p0-|-0-|
D|---0-----------0--------|-0-|
A|------------2-----------|-3-|
E|-3----------------------|---|
--------------------------------------------------------------------------------------------------------------
*Means only one strum.

            
            
Suggest correction
Creating personal tab
Creating personal tab
You can edit any tab online and save it as your Personal.

You can edit, replace or remove any tab part or add personal notes – all changes will be seen only by you.

Personal tabs can be accessed anytime from any device, even offline.
Learn more »
comments
print report bad tab
guest
You may want to rate the tab now too:
select rating
Wanna post a correction for this tab? Suggest correction