Oops, an error
Loading. Please wait.

How Would You Feel tab

version 2
version 2

Whole song

  • Video lesson. Includes chords and tab including solo.
  • Easy to follow, fully structured and time-framed.
  • Fingerstyle arrangement for How would you feel (Paean) by Ed Sheeran.

Interactive

Video

2,833 views 75 this week
no commentswrite comment
1 2 3 4 5
x 5
add to favorites
×
Save as Personal and add changes to this tab that will be seen only by you. Learn more ›
×
You can save this tab as Personal to edit and correct it or add notes. All changes will be seen only by you. Learn more »
launch autoscroll
font size
0
reset
how to read this tab
guitar tuner
edit
Autoscroll
slow
fast
+/-
esc
set tempo
stop
About this tab version
Video lesson. Includes chords and tab including solo. Was this info helpful? Yes No
ALL CREDIT: https://www.youtube.com/watch?v=SuSOESxK4yA&feature=youtu.be

Only reason i created this was to put what he did into tab format so it's all there on one page and you can 
play along but check out his video, he does a fantastic job explaining how to play this.

Capo 2
Standard Tuning

[Intro]
e|----------------------------|--------------------------|---------------------------|-----------------------|
B|--------0h3p0---------------|--3-----------------------|-----0h3p0-----------------|-------------------3---|
G|-----0--------0------0h2p0--|------------0--0--0h2p0---|---0-------0-------0h2p0---|----------------0------|
D|-----0----------------------|--------0h2-------------0-|---0-----------------------|----0h2--2---2---------|
A|----------------2--2--------|--3-----------------------|---------------2--2--------|-3---------------------|
E|--3-------------------------|--------------------------|-3-------------------------|-----------------------|

C
Playing Riff 2 then strumming into Cadd9 or C will do the trick wherever a riff shows up but if you 
want the quiet strumming you can hear in some cases, Riff 1 explains what's going on in those.

[--------------------------Riff 1-------------------------------]
[-----------Riff 2------------]
e|----------------------------|---------------------------------|
B|--------0h3p0---------------|--1----1----------------------1--|
G|-----0--------0------0h2p0--|--0----0-(strum a bit)------0----|
D|-----0----------------------|--0h2--2----------------0h2------|
A|----------------2--2--------|--3----3-------------------------|
E|--3-------------------------|---------------------------------|
     G: 3x000x
Bm7(5): x2023x
 Cadd9: x3203x
   Bm7: x24232
    Em: 022000
    A7: x02020
     D: xx0323 (can also be: xx0320)
   Am7: x02010


[Verse]
G             Bm7(5)    Cadd9
You are the one, girl
Cadd9                     Riff 1
  You know that it's true
G             Bm7(5)   Cadd9
   I'm feeling younger
Cadd9                                Riff 1
   Every time that I'm alone with you


[pre-chorus]
Bm7                               Em
   We were sitting in a parked car
                                  A7
   Stealing kisses in a front yard
                                     D
   We got questions we shouldn't had asked but


[Chorus]
N.C.                    Riff 2
   How would you feel
Cadd9                       Riff 2 
   If I told you I loved you
Cadd9                                 Riff 2
   It's just something that I want to do
                     Am7                D
   I'd be taking my time, spending my life
D                                  Riff 1
   Falling deeper in love with you
D                                  Riff 1
   So tell me that you love me too


[Verse]                                 
G         Bm7(5)  Cadd9              Riff 1                      
   In the summer, as the lilacs blew
G        Bm7(5)             Cadd9
   Blood flows deeper than a river
                                   Riff 1
   Every moment that I spend with you



[pre-chorus]
Bm7                                     Em 
   We were sat upon our best friend's roof
                                  A7
   I had both of my arms around you
                                    D
   Watching the sunrise replace the moon



[Chorus]
N.C.                    Riff 2
   How would you feel
Cadd9                       Riff 2 
   If I told you I loved you
Cadd9                                 Riff 2
   It's just something that I want to do
                     Am7                D
   I'd be taking my time, spending my life
D                                 Riff 1
   Falling deeper in love with you
D                                 Riff 1
   So tell me that you love me too


[solo]
e|----------------------------------------|----------------------------------------------|
B|----------------------------------------|---------------------------15-----------------|
G|-------12----12--14(b)--14--14p13p12----|-------12----12--14(b)--14----14p13p12----12--|
D|-12-14----14------------------------14--|-12-14----14---------------------------14-----|
A|----------------------------------------|----------------------------------------------|
E|----------------------------------------|----------------------------------------------|

e|---------------------------10h12/15--10h12--10-10/12--|--------------------------x--------------------|
B|------------------------------------------------------|--------------------------x--------------------|
G|--------12----12--14(b)-14----------------------------|-------12----12--14(b)-14-x--14p13p12-14-12-12-|
D|--12-14----14-----------------------------------------|-12-14----14--------------x--------------------|
A|------------------------------------------------------|--------------------------x--------------------|
E|------------------------------------------------------|--------------------------x--------------------|

e|---------------------------------------------------------------------|
B|---------------------------------------------------------------------|
G|-12------------------------------------------------------------------|
D|----14-----------------------------------------------------12/14\12--|
A|-------14\12p10--10--12/14---14\12-10-12-10----14/12p10h12-----------|
E|--------------------------------------------12-----------------------|



[pre-chorus]
Bm7                               Em
   We were sitting in a parked car
                                  A7
   Stealing kisses in a front yard
                                        D
   We got questions we shouldn't had asked


[Chorus]
N.C.                    Riff 2
   How would you feel
Cadd9                       Riff 2 
   If I told you I loved you
Cadd9                                 Riff 2
   It's just something that I want to do
                     Am7                D
   I'd be taking my time, spending my life
D                                 Riff 1
   Falling deeper in love with you
                                  Riff 1
   So tell me that you love me too
                               Riff 1
   Tell me that you love me too
                               Riff 1
   Tell me that you love me too

*********************************** 
| h Hammer-on 
| p Pull-off
| x Dead note 
| / Slide-up
| \ Slide-down 
|(b) Bend 
| ~ Vibrato 

***********************************

            
            
Suggest correction
Creating personal tab
Creating personal tab
You can edit any tab online and save it as your Personal.

You can edit, replace or remove any tab part or add personal notes – all changes will be seen only by you.

Personal tabs can be accessed anytime from any device, even offline.
Learn more »
comments
print report bad tab
guest
You may want to rate the tab now too:
select rating
Wanna post a correction for this tab? Suggest correction