Oops, an error
Loading. Please wait.

How Would You Feel tab

version 3
version 3

Whole song

  • Video lesson. Includes chords and tab including solo.
  • Easy to follow, fully structured and time-framed.
  • Fingerstyle arrangement for How would you feel (Paean) by Ed Sheeran.

Interactive

Video

451 views 18 this week
1 commentread comment
1 2 3 4 5
2 more votes to show rating
add to favorites
×
Save as Personal and add changes to this tab that will be seen only by you. Learn more ›
×
You can save this tab as Personal to edit and correct it or add notes. All changes will be seen only by you. Learn more »
launch autoscroll
font size
0
reset
how to read this tab
guitar tuner
edit
Autoscroll
slow
fast
+/-
esc
set tempo
stop
About this tab version
Easy to follow, fully structured and time-framed. Was this info helpful? Yes No
===========================================
VIDEO LESSON TO ACCOMPANY THIS TAB:
https://www.youtube.com/watch?v=jL2Hr5G0Ygg
===========================================


--------------
CAPO on FRET 2
==================================================================

CHORDS USED:

     G     Bm7#5   Cadd9    Bm7     Em       A7      D       Am
e|---3---|---3---|---3---|---2---|---0---|---0---|---2---|---0---|
B|---3---|---3---|---3---|---3---|---0---|---2---|---3---|---1---|
G|---0---|---2---|---0---|---2---|---0---|---0---|---2---|---2---|
D|---0---|---0---|---2---|---4---|---2---|---2---|---0---|---2---|
A|---2---|---2---|---3---|---2---|---2---|---0---|-------|-------|
E|---3---|-------|-------|-------|---0---|-------|-------|-------|

==================================================================


[INTRO]
0.00 - 0.15
e|-----------------|-----------------|-------------------------|
B|---------0h3p0---|-----------------|-------------------------|
G|---------0-------|---------0h2-p0--|-0-----------0-0-0h2-0---|
D|------0----------|------0----------|-0h2-----0h2-2-2-2---0---|
A|-----------------|-2---------------|-3-----------------------|
E|-3---------------|-----------------|-------------------------|

e|-----------------|-----------------|-------------------------|
B|---------0h3p0---|-----------------|-------------------------|
G|---------0-------|---------0h2-p0--|-0-----------------------|
D|------0----------|------0----------|-0h2---------------------|
A|-----------------|-2---------------|-3-----------------------|
E|-3---------------|-----------------|-------------------------|



[VERSE]
0.16 - 0.42
"You are the one girl, you know that it's true..."
e|-3----3---3-3-|-3----3---3-3-|-3----3---3-3-|-3----3---3-3-|
B|-3----3---3-3-|-3----3---3-3-|-3----3---3-3-|-3----3---3-3-|
G|-0----0---0-0-|-2----2---2-2-|-0----0---0-0-|-0----0---0-0-|
D|-0----0---0-0-|-0----0---0-0-|-2----2---2-2-|-2----2---2-2-|
A|-2----2---2-2-|-2----2---2-2-|-3----3---3-3-|-3----3---3-3-|
E|-3----3---3-3-|--------------|--------------|--------------|

e|--------------|--------------|-3----3---3-3-|-3----3---3-3-|
B|--------0h3p0-|--------------|-3----3---3-3-|-3----3---3-3-|
G|--------0-----|-------0h2-p0-|-0----0---0-0-|-0----0---0-0-|
D|-----0--------|-----0--------|-2----2---2-2-|-2----2---2-2-|
A|--------------|-2------------|-3----3---3-3-|-3----3---3-3-|
E|-3------------|--------------|--------------|--------------|

e|-3----3---3-3-|-3----3---3-3-|-3----3---3-3-|-3----3---3-3-|
B|-3----3---3-3-|-3----3---3-3-|-3----3---3-3-|-3----3---3-3-|
G|-0----0---0-0-|-2----2---2-2-|-0----0---0-0-|-0----0---0-0-|
D|-0----0---0-0-|-0----0---0-0-|-2----2---2-2-|-2----2---2-2-|
A|-2----2---2-2-|-2----2---2-2-|-3----3---3-3-|-3----3---3-3-|
E|-3----3---3-3-|--------------|--------------|--------------|

e|--------------|--------------|-3----3---3-3-|-3----3---3-3-|
B|--------0h3p0-|--------------|-3----3---3-3-|-3----3---3-3-|
G|--------0-----|-------0h2-p0-|-0----0---0-0-|-0----0---0-0-|
D|-----0--------|-----0--------|-2----2---2-2-|-2----2---2-2-|
A|--------------|-2------------|-3----3---3-3-|-3----3---3-3-|
E|-3------------|--------------|--------------|--------------|



[PRE-CHORUS]
0.43 - 0.56
"We were sitting in a parked car..."
e|-2--2--2-2--2--2--2-2-|-0--0--0-0--0--0--0-0-|-0--0--0-0--0--0--0-0-|-2--2--2-2--2-----|
B|-3--3--3-3--3--3--3-3-|-0--0--0-0--0--0--0-0-|-2--2--2-2--2--2--2-2-|-3--3--3-3--3-----|
G|-2--2--2-2--2--2--2-2-|-0--0--0-0--0--0--0-0-|-0--0--0-0--0--0--0-0-|-2--2--2-2--2-----|
D|-4--4--4-4--4--4--4-4-|-2--2--2-2--2--2--2-2-|-2--2--2-2--2--2--2-2-|-0--0--0-0--0-----|
A|-2--2--2-2--2--2--2-2-|-2--2--2-2--2--2--2-2-|-0--0--0-0--0--0--0-0-|------------------|
E|----------------------|-0--0--0-0--0--0--0-0-|----------------------|------------------|


[CHORUS a]
0.57 - 1.39
"How would you feel...... if I told you I loved you..."
e|--------------|--------------|-3----3---3-3-|-3----3---3-3-|
B|--------0h3p0-|--------------|-3----3---3-3-|-3----3---3-3-|
G|--------0-----|-------0h2-p0-|-0----0---0-0-|-0----0---0-0-|
D|-----0--------|-----0--------|-2----2---2-2-|-2----2---2-2-|
A|--------------|-2------------|-3----3---3-3-|-3----3---3-3-|
E|-3------------|--------------|--------------|--------------|

e|--------------|--------------|-3----3---3-3-|-3----3---3-3-|
B|--------0h3p0-|--------------|-3----3---3-3-|-3----3---3-3-|
G|--------0-----|-------0h2-p0-|-0----0---0-0-|-0----0---0-0-|
D|-----0--------|-----0--------|-2----2---2-2-|-2----2---2-2-|
A|--------------|-2------------|-3----3---3-3-|-3----3---3-3-|
E|-3------------|--------------|--------------|--------------|

e|--------------|--------------|-3----3---3-3-|-3----3---3-3-|
B|--------0h3p0-|--------------|-3----3---3-3-|-3----3---3-3-|
G|--------0-----|-------0h2-p0-|-0----0---0-0-|-0----0---0-0-|
D|-----0--------|-----0--------|-2----2---2-2-|-2----2---2-2-|
A|--------------|-2------------|-3----3---3-3-|-3----3---3-3-|
E|-3------------|--------------|--------------|--------------|

e|-0----0---0-0-|-0----0---0-0-|-2------------|--------------|
B|-1----1---1-1-|-1----1---1-1-|-3------------|--------------|
G|-2----2---2-2-|-2----2---2-2-|-2------------|--------------|
D|-2----2---2-2-|-2----2---2-2-|-0------------|--------------|
A|-0----0---0-0-|-0----0---0-0-|--------------|--------------|
E|--------------|--------------|--------------|--------------|

e|--------------|--------------|-3----3---3-3-|-3----3---3-3-|
B|--------0h3p0-|--------------|-3----3---3-3-|-3----3---3-3-|
G|--------0-----|-------0h2-p0-|-0----0---0-0-|-0----0---0-0-|
D|-----0--------|-----0--------|-2----2---2-2-|-2----2---2-2-|
A|--------------|-2------------|-3----3---3-3-|-3----3---3-3-|
E|-3------------|--------------|--------------|--------------|

e|--------------|--------------|-3------------|--------------|
B|--------0h3p0-|--------------|-3------------|--------------|
G|--------0-----|-------0h2-p0-|-0------------|--------------|
D|-----0--------|-----0--------|-2------------|--------------|
A|--------------|-2------------|-3------------|--------------|
E|-3------------|--------------|--------------|--------------|


[VERSE]
1.40  - 2.05
"In the summer..."
e|-3----3---3-3-|-3----3---3-3-|-3----3---3-3-|-3----3---3-3-|
B|-3----3---3-3-|-3----3---3-3-|-3----3---3-3-|-3----3---3-3-|
G|-0----0---0-0-|-2----2---2-2-|-0----0---0-0-|-0----0---0-0-|
D|-0----0---0-0-|-0----0---0-0-|-2----2---2-2-|-2----2---2-2-|
A|-2----2---2-2-|-2----2---2-2-|-3----3---3-3-|-3----3---3-3-|
E|-3----3---3-3-|--------------|--------------|--------------|

e|--------------|--------------|-3----3---3-3-|-3----3---3-3-|
B|--------0h3p0-|--------------|-3----3---3-3-|-3----3---3-3-|
G|--------0-----|-------0h2-p0-|-0----0---0-0-|-0----0---0-0-|
D|-----0--------|-----0--------|-2----2---2-2-|-2----2---2-2-|
A|--------------|-2------------|-3----3---3-3-|-3----3---3-3-|
E|-3------------|--------------|--------------|--------------|

e|-3----3---3-3-|-3----3---3-3-|-3----3---3-3-|-3----3---3-3-|
B|-3----3---3-3-|-3----3---3-3-|-3----3---3-3-|-3----3---3-3-|
G|-0----0---0-0-|-2----2---2-2-|-0----0---0-0-|-0----0---0-0-|
D|-0----0---0-0-|-0----0---0-0-|-2----2---2-2-|-2----2---2-2-|
A|-2----2---2-2-|-2----2---2-2-|-3----3---3-3-|-3----3---3-3-|
E|-3----3---3-3-|--------------|--------------|--------------|

e|--------------|--------------|-3----3---3-3-|-3----3---3-3-|
B|--------0h3p0-|--------------|-3----3---3-3-|-3----3---3-3-|
G|--------0-----|-------0h2-p0-|-0----0---0-0-|-0----0---0-0-|
D|-----0--------|-----0--------|-2----2---2-2-|-2----2---2-2-|
A|--------------|-2------------|-3----3---3-3-|-3----3---3-3-|
E|-3------------|--------------|--------------|--------------|


[PRE-CHORUS]
2.06 - 2.18
"We were sat upon our best friend's roof..."
e|-2--2--2-2--2--2--2-2-|-0--0--0-0--0--0--0-0-|-0--0--0-0--0--0--0-0-|-2--2--2-2--2-----|
B|-3--3--3-3--3--3--3-3-|-0--0--0-0--0--0--0-0-|-2--2--2-2--2--2--2-2-|-3--3--3-3--3-----|
G|-2--2--2-2--2--2--2-2-|-0--0--0-0--0--0--0-0-|-0--0--0-0--0--0--0-0-|-2--2--2-2--2-----|
D|-4--4--4-4--4--4--4-4-|-2--2--2-2--2--2--2-2-|-2--2--2-2--2--2--2-2-|-0--0--0-0--0-----|
A|-2--2--2-2--2--2--2-2-|-2--2--2-2--2--2--2-2-|-0--0--0-0--0--0--0-0-|------------------|
E|----------------------|-0--0--0-0--0--0--0-0-|----------------------|------------------|


[CHORUS]
2.19 - 2.59
"How would you feel...... if I told you I loved you..."
e|--------------|--------------|-3----3---3-3-|-3----3---3-3-|
B|--------0h3p0-|--------------|-3----3---3-3-|-3----3---3-3-|
G|--------0-----|-------0h2-p0-|-0----0---0-0-|-0----0---0-0-|
D|-----0--------|-----0--------|-2----2---2-2-|-2----2---2-2-|
A|--------------|-2------------|-3----3---3-3-|-3----3---3-3-|
E|-3------------|--------------|--------------|--------------|

e|--------------|--------------|-3----3---3-3-|-3----3---3-3-|
B|--------0h3p0-|--------------|-3----3---3-3-|-3----3---3-3-|
G|--------0-----|-------0h2-p0-|-0----0---0-0-|-0----0---0-0-|
D|-----0--------|-----0--------|-2----2---2-2-|-2----2---2-2-|
A|--------------|-2------------|-3----3---3-3-|-3----3---3-3-|
E|-3------------|--------------|--------------|--------------|

e|--------------|--------------|-3----3---3-3-|-3----3---3-3-|
B|--------0h3p0-|--------------|-3----3---3-3-|-3----3---3-3-|
G|--------0-----|-------0h2-p0-|-0----0---0-0-|-0----0---0-0-|
D|-----0--------|-----0--------|-2----2---2-2-|-2----2---2-2-|
A|--------------|-2------------|-3----3---3-3-|-3----3---3-3-|
E|-3------------|--------------|--------------|--------------|

e|-0----0---0-0-|-0----0---0-0-|-2------------|--------------|
B|-1----1---1-1-|-1----1---1-1-|-3------------|--------------|
G|-2----2---2-2-|-2----2---2-2-|-2------------|--------------|
D|-2----2---2-2-|-2----2---2-2-|-0------------|--------------|
A|-0----0---0-0-|-0----0---0-0-|--------------|--------------|
E|--------------|--------------|--------------|--------------|

e|--------------|--------------|-3----3---3-3-|-3----3---3-3-|
B|--------0h3p0-|--------------|-3----3---3-3-|-3----3---3-3-|
G|--------0-----|-------0h2-p0-|-0----0---0-0-|-0----0---0-0-|
D|-----0--------|-----0--------|-2----2---2-2-|-2----2---2-2-|
A|--------------|-2------------|-3----3---3-3-|-3----3---3-3-|
E|-3------------|--------------|--------------|--------------|

e|--------------|--------------|-3------------|--------------|
B|--------0h3p0-|--------------|-3------------|--------------|
G|--------0-----|-------0h2-p0-|-0------------|--------------|
D|-----0--------|-----0--------|-2------------|--------------|
A|--------------|-2------------|-3------------|--------------|
E|-3------------|--------------|--------------|--------------|


[SOLO]
Backing Chords
3.00 - 3.27
e|-3----3---3-3-|-3----3---3-3-|-3----3---3-3-|-3----3---3-3-|
B|-3----3---3-3-|-3----3---3-3-|-3----3---3-3-|-3----3---3-3-|
G|-0----0---0-0-|-2----2---2-2-|-0----0---0-0-|-0----0---0-0-| x4
D|-0----0---0-0-|-0----0---0-0-|-2----2---2-2-|-2----2---2-2-|
A|-2----2---2-2-|-2----2---2-2-|-3----3---3-3-|-3----3---3-3-|
E|-3----3---3-3-|--------------|--------------|--------------|


[PRE-CHORUS]
3.28 -  3.40
"We were sitting in a parked car..."
e|-2--2--2-2--2--2--2-2-|-0--0--0-0--0--0--0-0-|-0--0--0-0--0--0--0-0-|-2--2--2-2--2-----|
B|-3--3--3-3--3--3--3-3-|-0--0--0-0--0--0--0-0-|-2--2--2-2--2--2--2-2-|-3--3--3-3--3-----|
G|-2--2--2-2--2--2--2-2-|-0--0--0-0--0--0--0-0-|-0--0--0-0--0--0--0-0-|-2--2--2-2--2-----|
D|-4--4--4-4--4--4--4-4-|-2--2--2-2--2--2--2-2-|-2--2--2-2--2--2--2-2-|-0--0--0-0--0-----|
A|-2--2--2-2--2--2--2-2-|-2--2--2-2--2--2--2-2-|-0--0--0-0--0--0--0-0-|------------------|
E|----------------------|-0--0--0-0--0--0--0-0-|----------------------|------------------|


[CHORUS]
3.41 - to End
"How would you feel...... if I told you I loved you..."
e|--------------|--------------|-3----3---3-3-|-3----3---3-3-|
B|--------0h3p0-|--------------|-3----3---3-3-|-3----3---3-3-|
G|--------0-----|-------0h2-p0-|-0----0---0-0-|-0----0---0-0-|
D|-----0--------|-----0--------|-2----2---2-2-|-2----2---2-2-|
A|--------------|-2------------|-3----3---3-3-|-3----3---3-3-|
E|-3------------|--------------|--------------|--------------|

e|--------------|--------------|-3----3---3-3-|-3----3---3-3-|
B|--------0h3p0-|--------------|-3----3---3-3-|-3----3---3-3-|
G|--------0-----|-------0h2-p0-|-0----0---0-0-|-0----0---0-0-|
D|-----0--------|-----0--------|-2----2---2-2-|-2----2---2-2-|
A|--------------|-2------------|-3----3---3-3-|-3----3---3-3-|
E|-3------------|--------------|--------------|--------------|

e|--------------|--------------|-3----3---3-3-|-3----3---3-3-|
B|--------0h3p0-|--------------|-3----3---3-3-|-3----3---3-3-|
G|--------0-----|-------0h2-p0-|-0----0---0-0-|-0----0---0-0-|
D|-----0--------|-----0--------|-2----2---2-2-|-2----2---2-2-|
A|--------------|-2------------|-3----3---3-3-|-3----3---3-3-|
E|-3------------|--------------|--------------|--------------|

e|-0----0---0-0-|-0----0---0-0-|-2------------|--------------|
B|-1----1---1-1-|-1----1---1-1-|-3------------|--------------|
G|-2----2---2-2-|-2----2---2-2-|-2------------|--------------|
D|-2----2---2-2-|-2----2---2-2-|-0------------|--------------|
A|-0----0---0-0-|-0----0---0-0-|--------------|--------------|
E|--------------|--------------|--------------|--------------|

e|--------------|--------------|-3----3---3-3-|-3----3---3-3-|
B|--------0h3p0-|--------------|-3----3---3-3-|-3----3---3-3-|
G|--------0-----|-------0h2-p0-|-0----0---0-0-|-0----0---0-0-|
D|-----0--------|-----0--------|-2----2---2-2-|-2----2---2-2-|
A|--------------|-2------------|-3----3---3-3-|-3----3---3-3-|
E|-3------------|--------------|--------------|--------------|

e|--------------|--------------|-3----3---3-3-|-3----3---3-3-|
B|--------0h3p0-|--------------|-3----3---3-3-|-3----3---3-3-|
G|--------0-----|-------0h2-p0-|-0----0---0-0-|-0----0---0-0-|
D|-----0--------|-----0--------|-2----2---2-2-|-2----2---2-2-|
A|--------------|-2------------|-3----3---3-3-|-3----3---3-3-|
E|-3------------|--------------|--------------|--------------|

e|--------------|--------------|-3----3---3-3-|-3----3---3-3-|
B|--------0h3p0-|--------------|-3----3---3-3-|-3----3---3-3-|
G|--------0-----|-------0h2-p0-|-0----0---0-0-|-0----0---0-0-|
D|-----0--------|-----0--------|-2----2---2-2-|-2----2---2-2-|
A|--------------|-2------------|-3----3---3-3-|-3----3---3-3-|
E|-3------------|--------------|--------------|--------------|

e|--------------|--------------|-3------------|--------------|
B|--------0h3p0-|--------------|-3------------|--------------|
G|--------0-----|-------0h2-p0-|-0------------|--------------|
D|-----0--------|-----0--------|-2------------|--------------|
A|--------------|-2------------|-3------------|--------------|
E|-3------------|--------------|--------------|--------------|


***********************************
| h   Hummer-on
| p   Pull-off
***********************************



Suggest correction
Creating personal tab
Creating personal tab
You can edit any tab online and save it as your Personal.

You can edit, replace or remove any tab part or add personal notes – all changes will be seen only by you.

Personal tabs can be accessed anytime from any device, even offline.
Learn more »
Give kudos to tab author, rate the tab!
1 2 3 4 5
comments
print report bad tab
1 comment total.
0 reply
zhung32 289 Jul 04, 2017 11:07 AM

didn't like this contribution

guest
You may want to rate the tab now too:
select rating
Wanna post a correction for this tab? Suggest correction