Oops, an error
Loading. Please wait.

How Would You Feel tab

version 4
version 4

Whole song

  • Video lesson. Includes chords and tab including solo.
  • Easy to follow, fully structured and time-framed.
  • Fingerstyle arrangement for How would you feel (Paean) by Ed Sheeran.

Interactive

Video

49 views 12 this week
no commentswrite comment
1 2 3 4 5
3 more votes to show rating
add to favorites
×
Save as Personal and add changes to this tab that will be seen only by you. Learn more ›
×
You can save this tab as Personal to edit and correct it or add notes. All changes will be seen only by you. Learn more »
launch autoscroll
font size
0
reset
how to read this tab
guitar tuner
edit
Autoscroll
slow
fast
+/-
esc
set tempo
stop
About this tab version
Fingerstyle arrangement for How would you feel (Paean) by Ed Sheeran. Was this info helpful? Yes No
How Would You Feel (Paean) by Ed Sheeran


[Intro]

    G        Bm                      C
E|-------------------------|-----------------------------|
B|-----0h3p0---------------|--1--------------------------|
G|--0---------------0h2p0--|--0----------0--0--0h2p0-----|
D|--0------------0---------|--2-----0h2------------------|
A|------------2------------|--3--------------------------|
E|--3--x--------------x----|-----x-------------x---------|


    G        Bm                      C
E|-------------------------|-----------------------------|
B|-----0h3p0---------------|--1--------------------------|
G|--0---------------0h2p0--|--0--------------------------|
D|--0------------0---------|--2--------------------------|
A|------------2------------|--3--------------------------|
E|--3--x--------------x----|-----x-------------x---------|


[Verse]

    G             Bm           C        
E|--------------------------|-------------------------------|
B|--------------------------|--1----------------------------|
G|--0-----4--4--2--2--0-----|--0------------0--0--0--0------|
D|--0--------------4--------|--2-----0h2--------------------|
A|-----------------2--------|--3----------------------------|
E|--3--x-----------------x--|-----x------------------x------|

   
    G        Bm               C
E|-------------------------|-----------------------------|
B|-----0h3p0---------------|--1--------------------------|
G|--0---------------0h2p0--|--0--------------------------|
D|--0------------0---------|--2----------------0h2p0-----|
A|------------2------------|--3--------------------------|
E|--3--x--------------x----|-----x-------------x---------|

  
    G            Bm          C
E|------------------------|--------------0---------------|
B|------------------------|--1-----0--3-----3p0--0-------|
G|--0-----4--4p2--2h4-----|--0----------------------2----|
D|--0-------------4-------|--2---------------------------|
A|----------------2-------|--3-----------3-------x-------|
E|--3--x---------------x--|-----x------------------------|


    G        Bm                      C
E|-------------------------|-----------------------------|
B|-----0h3p0---------------|--1--------------------------|
G|--0---------------0h2p0--|--0--------------------------|
D|--0------------0---------|--2-----------0h2—-2p0-------|
A|------------2------------|--3--------------------------|
E|--3--x--------------x----|-----x-------------x---------|


[Pre-Chorus]

    Bm                             Em
E|-------------------------------|----------------------------|
B|--3--------3--5p3--3--------3--|-------------0--0--0--------|
G|--4-----4-------------4--4-----|--0-----0h2-----------2--0--|
D|--4----------------------------|--2-------------------------|
A|--2-----2----------------------|----------------------------|
E|-----x-------------------x-----|--0--x--0-------------x-----|


    A                                 D   
E|---------------------------------|-----2-----2----------------|
B|--2------------0--0--0--3--0--0--|-----3-----3----------------|
G|--2-----0h2----------------------|-----2-----2--0--0--2/4--4--|
D|--2------------------------------|--0--------0----------------|
A|--0-----0------------------------|----------------------------|
E|-----x------------------x--------|--------x-------------------|


[Chorus]

    G        Bm               C
E|-------------------------|------------------------------|
B|-----0h3p0---------------|--1------------0--0--0--3--0--|
G|--0---------------0h2p0--|--0-----0h2-------------------|
D|--0------------0---------|--2---------------------------|
A|------------2------------|--3---------------------------|
E|--3--x--------------x----|-----x------------------x-----|

  
    G        Bm               C
E|-------------------------|--------3------------------------|
B|-----0h3p0---------------|--1--------3—-1p0----------------|
G|--0---------------0h2p0--|--0----------------2p0--2--0--0--|
D|--0------------0---------|--2------------------------------|
A|------------2------------|--3------------------------------|
E|--3--x--------------x----|-----x------------------x--------|


    G        Bm               C                   Am
E|-------------------------|-----------------------------------|
B|-----0h3p0---------------|--1--------------0--0-----1-----1--|
G|--0---------------0h2p0--|--0--------0--0-----------2-----2--|
D|--0------------0---------|--2-----------------------2-----2--|
A|------------2------------|--3-----3--------------0--------0--|
E|--3--x--------------x----|-----x-----------x-----------x-----|

             
                D           Am
E|-----------------2-----|---------------------------|
B|--3--0--0--0-----3-----|-------1--0----------------|
G|-----------------2-----|--0h2--------2p0--2--0--0--|
D|--------------0--------|---------------------------|
A|-----------------------|---------------------------|
E|--------x-----------x--|------------------x--------|


    G        Bm                     C
E|-------------------------|--------------------------------|
B|-----0h3p0---------------|--1--------------------------0--|
G|--0---------------0h2p0--|--0--------0--0--0--0-----0-----|
D|--0------------0---------|--2--------------------4--------|
A|------------2------------|--3-----3-----------------------|
E|--3--x--------------x----|-----x-----------------x--------|


    G        Bm                     C
E|-------------------------|-----------------------------|
B|-----0h3p0---------------|--1--------------------------|
G|--0---------------0h2p0--|--0--------------------------|
D|--0------------0---------|--2--------------------------|
A|------------2------------|--3--------------------------|
E|--3--x--------------x----|-----x-------------x---------|


[Verse]

    G         Bm          C
E|---------------------|-----------------------------|
B|---------------------|--1-----------------------0--|
G|--0-----4p2--2h4-----|--0----------0--0--0h2p0-----|
D|--0----------4-------|--2-----0h2------------------|
A|-------------2-------|--3--------------------------|
E|--3--x------------x--|-----x-------------x---------|


    G        Bm               C
E|-------------------------|-----------------------------|
B|-----0h3p0---------------|--1--------------------------|
G|--0---------------0h2p0--|--0--------------------------|
D|--0------------0---------|--2-----0h2--------0h2p0-----|
A|------------2------------|--3--------------------------|
E|--3--x--------------x----|-----x-------------x---------|


    G           Bm                   C
E|-----------0---------------------|----------------------------------------|
B|-----------------3p1--1--0--1p0--|---------------------1--0---------0--0--|
G|--0-----0------------------------|-----2p0--0----0h2---------2p0h2--------|
D|--0------------------------------|----------------------------------------|
A|--------------2------------------|--3------------------3------------------|
E|--3--x----------------x----------|-------------x-----------------x--------|

  
  G          Bm               C
E|-------------------------|-----------------------------|
B|-----0h3p0---------------|--1--------------------------|
G|--0---------------0h2p0--|--0--------------------------|
D|--0------------0---------|--2-----------0h2—-2p0-------|
A|------------2------------|--3--------------------------|
E|--3--x--------------x----|-----x-------------x---------|


[Pre-Chorus]

    Bm                             Em
E|-------------------------------|----------------------------|
B|--3--------3--5p3--3--------3--|-------------0--0--0--------|
G|--4-----4-------------4--4-----|--0-----0h2-----------2--0--|
D|--4----------------------------|--2-------------------------|
A|--2-----2----------------------|----------------------------|
E|-----x-------------------x-----|--0--x--0-------------x-----|


    A                                 D   
E|---------------------------------|-----2-----2----------------|
B|--2------------0--0--0--3--0--0--|-----3-----3----------------|
G|--2-----0h2----------------------|-----2-----2--0--0--2/4--4--|
D|--2------------------------------|--0--------0----------------|
A|--0-----0------------------------|----------------------------|
E|-----x------------------x--------|--------x-------------------|


[Chorus]

    G        Bm               C
E|-------------------------|------------------------------|
B|-----0h3p0---------------|--1------------0--0--0--3--0--|
G|--0---------------0h2p0--|--0-----0h2-------------------|
D|--0------------0---------|--2---------------------------|
A|------------2------------|--3---------------------------|
E|--3--x--------------x----|-----x------------------x-----|

  
    G        Bm               C
E|-------------------------|--------3------------------------|
B|-----0h3p0---------------|--1--------3—-1p0----------------|
G|--0---------------0h2p0--|--0----------------2p0--2--0--0--|
D|--0------------0---------|--2------------------------------|
A|------------2------------|--3------------------------------|
E|--3--x--------------x----|-----x------------------x--------|


    G        Bm               C                    Am
E|-------------------------|-----------------------------------|
B|-----0h3p0---------------|--1--------------0--0-----1-----1--|
G|--0---------------0h2p0--|--0--------0--0-----------2-----2--|
D|--0------------0---------|--2-----------------------2-----2--|
A|------------2------------|--3-----3--------------0--------0--|
E|--3--x--------------x----|-----x-----------------------x-----|

             
                D           Am
E|-----------------2-----|---------------------------|
B|--3--0--0--0-----3-----|-------1--0----------------|
G|-----------------2-----|--0h2--------2p0--2--0--0--|
D|--------------0--------|---------------------------|
A|-----------------------|---------------------------|
E|--------x-----------x--|------------------x--------|


    G        Bm               C
E|-------------------------|--------------------------------|
B|-----0h3p0---------------|--1--------------------------0--|
G|--0---------------0h2p0--|--0--------0--0--0--0-----0-----|
D|--0------------0---------|--2--------------------4--------|
A|------------2------------|--3-----3-----------------------|
E|--3--x--------------x----|-----x-----------------x--------|


    G        Bm 
E|-------------------------|
B|-----0h3p0---------------|
G|--0---------------0h2p0--|
D|--0------------0---------|
A|------------2------------|
E|--3--x--------------x----|


[Solo]

    C                         G       Bm7           C
E|-----------------------3p0--3--|--7--5-----7p5\3--0--------|
B|--1---------------3/5-------0--|-----3------------1--------|
G|--0-------------------------0--|-----2------------0--------|
D|--2----------------------------|---------------------------|
A|--3----------------------------|-----2------------3-----3--|
E|-----x------------x---------3--|--x-----x------------x-----|


              G    Bm7                   C
E|-------3p0--3--7--5--|--12--7\5--3p0--3-----------|
B|--3/5-------0-----3--|----------------1-----------|
G|------------0-----2--|----------------0-----------|
D|---------------------|----------------------------|
A|------------------2--|----------------3-----3-----|
E|--x---------3--x-----|------x------------x--------|


              G     Bm7 
E|-------3p0--3--7--5-----|--12h14--17--12/14--12---------|
B|--3/5-------0-----3-----|-------------------------------|
G|------------0-----2-----|-------------------------------|
D|------------------------|-------------12------------12--|
A|------------------2-----|-------------------------------|
E|--x---------3--x-----x--|------------------------x------|


              G     Bm7   
E|-------3p0--3--7--5-----|--7p5\3--5--3--------|
B|--3/5-------0-----3-----|---------------------|
G|------------0-----2-----|---------------------|
D|------------------------|---------------------|
A|------------------2-----|---------3--------3--|
E|--x---------3--x-----x--|---------------x-----|


[Pre-Chorus]

    Bm                             Em
E|-------------------------------|----------------------------|
B|--3--------3--5p3--3--------3--|-------------0--0--0--------|
G|--4-----4-------------4--4-----|--0-----0h2-----------2--0--|
D|--4----------------------------|--2-------------------------|
A|--2-----2----------------------|----------------------------|
E|-----x-------------------x-----|--0--x--0-------------x-----|


    A                                D   
E|---------------------------------|-----2-----2----------------|
B|--2------------0--0--0--3--0--0--|-----3-----3----------------|
G|--2-----0h2----------------------|-----2-----2--0--0--2/4--4--|
D|--2------------------------------|--0--------0----------------|
A|--0-----0------------------------|----------------------------|
E|-----x------------------x--------|--------x-------------------|


[Chorus]

    G        Bm               C
E|-------------------------|------------------------------|
B|-----0h3p0---------------|--1------------0--0--0--3--0--|
G|--0---------------0h2p0--|--0-----0h2-------------------|
D|--0------------0---------|--2---------------------------|
A|------------2------------|--3---------------------------|
E|--3--x--------------x----|-----x------------------x-----|

  
    G        Bm               C
E|-------------------------|--------3------------------------|
B|-----0h3p0---------------|--1--------3—-1p0----------------|
G|--0---------------0h2p0--|--0----------------2p0--2--0--0--|
D|--0------------0---------|--2------------------------------|
A|------------2------------|--3------------------------------|
E|--3--x--------------x----|-----x------------------x--------|


    G        Bm               C                    Am
E|-------------------------|-----------------------------------|
B|-----0h3p0---------------|--1--------------0--0-----1-----1--|
G|--0---------------0h2p0--|--0--------0--0-----------2-----2--|
D|--0------------0---------|--2-----------------------2-----2--|
A|------------2------------|--3-----3--------------0--------0--|
E|--3--x--------------x----|-----x-----------------------x-----|

             
                D
E|-----------------2-----|---------------------------|
B|--3--0--0--0-----3-----|-------1--0----------------|
G|-----------------2-----|--0h2--------2p0--2--0--0--|
D|--------------0--------|---------------------------|
A|-----------------------|---------------------------|
E|--------x-----------x--|------------------x--------|


    G        Bm               C
E|-------------------------|--------------------------------|
B|-----0h3p0---------------|--1--------------------------0--|
G|--0---------------0h2p0--|--0--------0--0--0--0-----0-----|
D|--0------------0---------|--2--------------------4--------|
A|------------2------------|--3-----3-----------------------|
E|--3--x--------------x----|-----x-----------------x--------|


    G        Bm               C
E|-------------------------|--------------------------------|
B|-----0h3p0---------------|--1--------------------------0--|
G|--0---------------0h2p0--|--0--------0--0--0--0-----0-----|
D|--0------------0---------|--2--------------------4--------|
A|------------2------------|--3-----3-----------------------|
E|--3--x--------------x----|-----x-----------------x--------|


    G        Bm               C
E|-------------------------|-------|
B|-----0h3p0---------------|--1----|
G|--0---------------0h2p0--|--0----|
D|--0------------0---------|--2----|
A|------------2------------|--3----|
E|--3--x--------------x----|-------|


| /   Slide up
| \   Slide down
| h   Hammer-on
| p   Pull-off
| x   Slap string/ Dead note

            
            
Suggest correction
Creating personal tab
Creating personal tab
You can edit any tab online and save it as your Personal.

You can edit, replace or remove any tab part or add personal notes – all changes will be seen only by you.

Personal tabs can be accessed anytime from any device, even offline.
Learn more »
Give kudos to tab author, rate the tab!
1 2 3 4 5
comments
print report bad tab
guest
You may want to rate the tab now too:
select rating
Wanna post a correction for this tab? Suggest correction