Oops, an error
Loading. Please wait.
We have Chord Pro version of I See Fire.
It's the closest thing you can get to the original song and it has interactive parts. Check out the tab »
×

I See Fire intro tab

version 4
version 4

Whole song

3,211 views 54 this week
no commentswrite comment
1 2 3 4 5
x 4
add to favorites
×
Save as Personal and add changes to this tab that will be seen only by you. Learn more ›
×
You can save this tab as Personal to edit and correct it or add notes. All changes will be seen only by you. Learn more »
launch autoscroll
font size
0
reset
how to read this tab
guitar tuner
edit
Autoscroll
slow
fast
+/-
esc
set tempo
stop
Author
Difficulty
https://www.youtube.com/watch?v=yynzP4BPmq4 
Here's a link for the live version of the song. Its pretty easy to play when you listen to the live version a 
few times.
If you have a loop station, record the parts individually. Otherwise you can also play it one after one.
 
  CAPO:2
  Record Part 1:
e|--------------------x-----------x-----------x------------------------------|
B|--------------------x-----------x-----------x------------------------------|
G|--------------------x-----------x-----------x------------------------------|  
D|--------------------x-----------x-----------x------------------------------|   2x
A|--------------------x-----------x-----------x------------------------------|
E|--4--6--7--0--------x-----2-----x-----4-----x------------------------------|
    1  +  2  +  3  +  4  +  5  +  6  +  7  +  8  +
  Record Part 2:
e|--------------------x-----------x-----------x------------------------------|
B|--------------------x-----------x-----------x------------------------------|
G|--------------------x-----------x-----------x------------------------------|
D|--6--8--9--2--------x-----4-----x-----6-----x------------------------------|   2x
A|--------------------x-----------x-----------x------------------------------|
E|--------------------x-----------x-----------x------------------------------|
  
 OPTIONAL:
  Record Part 3:
e|--------------------x-----------x-----------x------------------------------|
B|--9--11--12--5------x-----7-----x-----9-----x------------------------------|
G|--------------------x-----------x-----------x------------------------------|
D|--------------------x-----------x-----------x------------------------------|   2x
A|--------------------x-----------x-----------x------------------------------|
E|--------------------x-----------x-----------x------------------------------|
  

  CAPO:6
  Record Part 4:
e|---------------------------------------------------------------------------|
B|------------3--0-----------------------------------------------------------|
G|-------0h2--------2--0--0h2--2/4-----2--0----------------------------------|
D|--0h2-----------------------------2----------------------------------------|   1x
A|---------------------------------------------------------------------------|
E|---------------------------------------------------------------------------|


  Record Part 5:

  Em (022000) Cadd9 (x32020) G (300230) Em7 (022030)

    Em    Cadd9     G     Em7
    D D D D   D DU  D D D D   D D DU
    1 + 2 + 3 + 4 + 5 + 6 + 7 + 8 + 
  

  Record Part 6:
e|--------------------------x--------------x-----------x---------------------|
B|--5-----------------------x---------3----x-----------x---------------------|
G|--2h4p2p0---------0--0----x-----0h2------x-----------x---------------------|
D|----------0h2--2-----0h2--x-----0--------x-----2-----x---------------------|
A|---------------------3----x--------------x-----2-----x---------------------|
E|--0-----------------------x--------------x-----0-----x---------------------|

e|---------------------------x--------------x-----------x--------------------|
B|--5------------------0h1---x---------3----x-----------x--------------------|
G|--2h4p2p0---------0--(0)---x-----0h2------x-----------x--------------------|
D|----------0h2--2-----0h2---x-----0--------x-----2-----x--------------------|
A|---------------------3-----x--------------x-----2-----x--------------------|
E|--0------------------------x--------------x-----0-----x--------------------|

He also adds some vocals and percussion you can do that between Part 5 and 6.

************************************

| x   Dead note
| g   Grace note
| (n) Ghost note
| h   Hammer-on
| p   Pull-off
| r   Release
| >   Accented note
| t   Tapping
| b   Bend
| br  Bend release
| pb  Pre-bend
| pbr Pre-bend release
| /   Slide up
| \   Slide down
| ~   Vibrato
| s   Slap
| P   Pop
| PM  Palm mute
| TR  Trill
| N   Tremolo

************************************

            
            
Suggest correction
Creating personal tab
Creating personal tab
You can edit any tab online and save it as your Personal.

You can edit, replace or remove any tab part or add personal notes – all changes will be seen only by you.

Personal tabs can be accessed anytime from any device, even offline.
Learn more »
comments
print report bad tab
guest
You may want to rate the tab now too:
select rating
Wanna post a correction for this tab? Suggest correction