Oops, an error
Loading. Please wait.

I See Fire Tab

version 1
version 1

Live

Whole song

Interactive

403 views 87 this week
no commentswrite comment
1 2 3 4 5
1 last vote to show rating
add to favorites
launch autoscroll
font size
0
reset
how to read this tab
guitar tuner
Autoscroll
slow
fast
+/-
esc
set tempo
stop
Help us to improve Ultimate-Guitar.com Take our survey!
×
Author
Difficulty
Capo
advanced
2nd fret
Live version/loop of "I see fire"

CAPO:2
  Loop 1:
e|--------------------x-----------x-----------x------------------------------|
B|--------------------x-----------x-----------x------------------------------|
G|--------------------x-----------x-----------x------------------------------|  
D|--------------------x-----------x-----------x------------------------------|   2x
A|--------------------x-----------x-----------x------------------------------|
E|--4--6--7--0--------x-----2-----x-----4-----x------------------------------|

 Loop 2:
e|--------------------x-----------x-----------x------------------------------|
B|--------------------x-----------x-----------x------------------------------|
G|--------------------x-----------x-----------x------------------------------|
D|--6--8--9--2--------x-----4-----x-----6-----x------------------------------|   2x
A|--------------------x-----------x-----------x------------------------------|
E|--------------------x-----------x-----------x------------------------------|

CAPO:6
 Loop 3:
e|---------------------------------------------------------------------------|
B|------------3--0-----------------------------------------------------------|
G|-------0h2--------2--0--0h2--4--4-----2--0---------------------------------|
D|--0h2----------------------------------------------------------------------|  1x
A|---------------------------------------------------------------------------|
E|---------------------------------------------------------------------------|

 Loop 4:
e|---3----2------------------------------------------------------------------|
B|------------3--0-----------------------------------------------------------|
G|------------------2--0--0h2--4--4-----2--0---------------------------------|
D|---------------------------------------------------------------------------|  1x
A|---------------------------------------------------------------------------|
E|---------------------------------------------------------------------------|

 Loop 5:

Em (022000) Cadd9 (x32020) G (300230) Em7 (022030)

    Em    Cadd9     G     Em7
    D D D D   D DU  D D D D   D D DU
    1 + 2 + 3 + 4 + 5 + 6 + 7 + 8 + 

Main riff:
 x = hit
e|--------------------x--------------x-----------x---------------------|
B|--5-----------------x-----3---3----x-----------x---------------------|
G|--2h4p2p0------0----x-----0h2------x-----0-----x---------------------|
D|----------0h2--0h2--x-----0--------x-----2-----x---------------------|
A|---------------3----x--------------x-----------x---------------------|
E|--0-----------------x--------------x-----0-----x---------------------|

e|---------------------x--------------x-----------x--------------------|
B|--5------------0h1---x-----3---3----x-----------x--------------------|
G|--2h4p2p0------0-----x-----0h2------x-----0-----x--------------------|
D|----------0h2--h2----x-----0--------x-----2-----x--------------------|
A|---------------3-----x--------------x-----------x--------------------|
E|--0------------------x--------------x-----0-----x--------------------|

************************************

| x   hit
| g   Grace note
|(n)  Ghost note
| h   Hammer-on
| p   Pull-off

************************************



Suggest correction
Give kudos to tab author, rate the tab!
1 2 3 4 5
comments
print report bad tab
guest
You may want to rate the tab now too:
select rating
Wanna post a correction for this tab? Suggest correction