Oops, an error
Loading. Please wait.
We have Chord Pro version of I See Fire.
It's the closest thing you can get to the original song and it has interactive parts. Check out the tab »
×

I See Fire Acoustic chords

118,655 views 987 this week
10 commentsread comments
1 2 3 4 5
x 204
add to favorites
×
Save as Personal and add changes to this tab that will be seen only by you. Learn more ›
×
You can save this tab as Personal to edit and correct it or add notes. All changes will be seen only by you. Learn more »
launch autoscroll
font size
0
reset
transpose
0
reset
simplify chords
display chords
guitar tuner
edit
Autoscroll
slow
fast
+/-
esc
set tempo
stop
Strumming
There is no strumming pattern for this song yet. and get +5 IQ
Standard Tuning
Capo: 6
Most of the C chords are played as Cadd9
www.mattbmusic.com

[Vocal Intro]
                              Em
Oh, misty eye of the mountain below
                                  G
Keep careful watch of my brothers' souls
                                        C
And should the sky be filled with fire and smoke
                           Em
Keep watching over Durin's son

[Intro riff] x 2

  Em7        Cadd9  D  Em7
e|------------------2------x-|
B|---------------3--3--3---x-|
G|2h4p2p0-0------0--2--0---x-|
D|-------0-0----2---0--2---x-|
A|------------h3-------2---x-|
E|0--------------------0---x-|


[Verse]

              Em     G
If this is to end in fire
              D        C
Then we shall all burn together
          Em           G    D        Am7
Watch the flames climb high into the night
        Em    G     D            C
Calling out father, stand by and we will
          Am7         G/B            C
Watch the flames burn auburn on the mountain side

[Intro tab]

                 Em    G
And if we should die tonight
               D       C
Then we should all die together
        Em       G   D        Am7
Raise a glass of wine for the last time
        Em    G     D          C
Calling out father, prepare as we will
          Am7         G/B            C
Watch the flames burn auburn on the mountain side
    Am7    G/B             C
Desolation comes upon the sky


[Chorus]

          Em  C  D          Em
Now I see fire,  inside the mountain
      Em  C  D           Em
I see fire,  burning the trees
          Em  C  D         Em
And I see fire,  hollowing souls
      Em  C  D            Am7
I see fire,  blood in the breeze

And I hope that you'll remember me


[Intro]  x 2


[Verse]

              Em     G
Oh, should my people fall
            D           C
Then surely I'll do the same
            Em       G
Confined in mountain halls
           D            Am7
We got too close to the flame
        Em     G   D             C
Calling out father hold fast and we will
          Am7         G/B            C
Watch the flames burn auburn on the mountain side
    Am7    G/B             C
Desolation comes upon the sky


[Chorus]

          Em  C  D          Em
Now I see fire,  inside the mountain
      Em  C  D           Em
I see fire,  burning the trees
          Em  C  D         Em
And I see fire,  hollowing souls
      Em  C  D            Am7
I see fire,  blood in the breeze
                                Am7
And I hope that you'll remember me


[Bridge]

           Am       Em
And if the night is burning
       G        D
I will cover my eyes
           Am     Em
For if the dark returns then
   G             D
My brothers will die
           Am            Em
And as the sky's falling down
           G                D
It crashed into this lonely town
              Am7
And with that shadow upon the ground
  G/B      C                D
I hear my people screaming out


[Chorus]

          Em  C  D          Em
Now I see fire,  inside the mountain
      Em  C  D           Em
I see fire,  burning the trees
          Em  C  D         Em
And I see fire,  hollowing souls
      Em  C  D            Em
I see fire,  blood in the breeze

      Em           C                 D        Em
I see fire, oh you know I saw a city burning (fire)
      Em         C                D     Em
I see fire, feel the heat upon my skin (fire)
          Em   C       D  Em
And I see fire, oooooo (fire)
          Em        C             D        Em
And I see fire burn auburn on the mountain side

            
            
Suggest correction
Creating personal tab
Creating personal tab
You can edit any tab online and save it as your Personal.

You can edit, replace or remove any tab part or add personal notes – all changes will be seen only by you.

Personal tabs can be accessed anytime from any device, even offline.
Learn more »
comments
print report bad tab
10 comments total. Showing first comments.
+2 reply
niices 95 Dec 31, 2016 10:11 AM, edited at 03:13 pm

[Intro]

e|---------------------------------------------------------------------------|
B|---2-4-6-4-22------------2-4-6-4-22-4-4------------------------------------|
G|-3------------3-1-3----3---------------------------------------------------|
D|---------------------------------------------------------------------------|
A|---------------------------------------------------------------------------|
E|---------------------------------------------------------------------------|

e|-------1-6-4---------------------------------------------------------------|
B|---2-4-------4-2---6-4-2-1----------2\1---2-1------------------------------|
G|-3------------------------------1-3-----------3-1-3------------------------|
D|------------------------------3--------------------------------------------|
A|---------------------------------------------------------------------------|
E|---------------------------------------------------------------------------|

0 reply
niices 95 Dec 31, 2016 10:14 AM, edited at 03:16 pm

[Intro]

e|---------------------------------------------------------------------------|
B|---2-4-6-4-22------------2-4-6-4-22-4-4------------------------------------|
G|-3------------3-1-3----3---------------------------------------------------|
D|---------------------------------------------------------------------------|
A|---------------------------------------------------------------------------|
E|---------------------------------------------------------------------------|

e|---------6-4---------------------------------------------------------------|
B|---2-4-6-----4-2---6-4-2-1----------2-1---2\1------------------------------|
G|-3------------------------------1-3-----------3-1-3------------------------|
D|------------------------------3--------------------------------------------|
A|---------------------------------------------------------------------------|
E|---------------------------------------------------------------------------|

0 reply
neverdream76 10 Apr 12, 2017 04:24 AM

👍

guest
You may want to rate the tab now too:
select rating
Wanna post a correction for this tab? Suggest correction