Oops, an error
Loading. Please wait.
We have Chord Pro version of I See Fire.
It's the closest thing you can get to the original song and it has interactive parts. Check out the tab »
×

I See Fire chords

8,248,740 views 26,115 this week
184 commentsread comments
1 2 3 4 5
x 5,926
add to favorites
×
Save as Personal and add changes to this tab that will be seen only by you. Learn more ›
×
You can save this tab as Personal to edit and correct it or add notes. All changes will be seen only by you. Learn more »
launch autoscroll
font size
0
reset
transpose
0
reset
simplify chords
display chords
guitar tuner
edit
Autoscroll
slow
fast
+/-
esc
set tempo
stop
Strumming Are these strumming patterns correct? Yes No
Verse 76 bpm
1
&
2
&
3
&
4
&
5
&
6
&
7
&
8
&
Listen
Chorus 76 bpm
1
&
2
&
3
&
4
&
5
&
6
&
7
&
8
&
Listen
[Intro]
N.C.
Oh, misty eye of the mountain below
Keep careful watch of my brothers' souls
And should the sky be filled with fire and smoke
                           Em
Keep watching over Durin's sons

[Intro Tab]
e|-------------------------x----------------x---------------x--|
B|-----------0h1-----------x------3---3-----x---0-----------x--|
G|2h4p20-0---0-------------x------0h2-2-----x---0-----------x--|
D|------2----2-------------x------0---------x---2-----------x--|  
A|-----------3-------------x----------------x---------------x--|
E|0-----------------------------------------x---0-----------x--|(x2)

[Verse 1]
              Em     G
If this is to end in fire
               D        C
Then we should all burn together
          Em           G    D        Am7
Watch the flames climb high into the night
        Em    G         D            C
Calling out father, oh, stand by and we will
          Am7         Bm            C
Watch the flames burn auburn on the mountain side

[Verse 2]
e|-------------------------x----------------x---------------x--|
B|-----------0h1-----------x------3---3-----x---0-----------x--|
G|2h4p20-0---0-------------x------0h2-2-----x---0-----------x--|
D|------2----2-------------x------0---------x---2-----------x--|  
A|-----------3-------------x----------------x---------------x--|
E|0-----------------------------------------x---0-----------x--|(x2)

                 Em    G
And if we should die tonight
               D       C
Then we should all die together
        Em       G   D        Am7
Raise a glass of wine for the last time
        Em    G         D          C
Calling out father, oh, prepare as we will
          Am7         Bm            C
Watch the flames burn auburn on the mountain side
    Am7    Bm             C
Desolation comes upon the sky

[Chorus]
          Em  C  D          Em          
Now I see fire,  inside the mountain
      Em  C  D           Em
I see fire,  burning the trees 
          Em  C  D         Em
And I see fire,  hollowing souls
      Em  C  D            Am7
I see fire,  blood in the breeze

And I hope that you'll remember me

[Instrumental]
e|-------------------------x----------------x---------------x--|
B|-----------0h1-----------x------3---3-----x---0-----------x--|
G|2h4p20-0---0-------------x------0h2-2-----x---0-----------x--|
D|------2----2-------------x------0---------x---2-----------x--|  
A|-----------3-------------x----------------x---------------x--|
E|0-----------------------------------------x---0-----------x--|(x2)

[Verse 2]
              Em     G
Oh, should my people fall
            D           C
Then surely I'll do the same
            Em       G
Confined in mountain halls
           D            Am7
We got too close to the flame
        Em     G        D             C     
Calling out father, oh, hold fast and we will
          Am7         Bm            C
Watch the flames burn auburn on the mountain side
    Am7    Bm             C
Desolation comes upon the sky

[Chorus]
          Em  C  D          Em          
Now I see fire,  inside the mountain
      Em  C  D           Em
I see fire,  burning the trees 
          Em  C  D         Em
And I see fire,  hollowing souls
      Em  C  D            Am7
I see fire,  blood in the breeze
                                Am7
And I hope that you'll remember me

[Bridge]
           Am7      Em
And if the night is burning
       D        C
I will cover my eyes
           Am7    Em
For if the dark returns then
   D             CMaj7
My brothers will die
           Am7            Em
And as the sky is falling down
           D                C
It crashed into this lonely town
              Am7                   
And with that shadow upon the ground
          C                    D
I hear my people screaming out

[Chorus/Outro]
          Em  C  D          Em          
Now I see fire,  inside the mountain
      Em  C  D           Em
I see fire,  burning the trees 
          Em  C  D         Em
And I see fire,  hollowing souls
      Em  C  D            Em
I see fire,  blood in the breeze
      Em           C                 D        Em 
I see fire, oh you know I saw a city burning (fire)
      Em         C                D     Em
I see fire, feel the heat upon my skin (fire)
          Em   C       D  Em 
And I see fire, oooooo (fire)
          Em        C             D        Em
And I see fire burn auburn on the mountain side


************************************

| x  Dead note
| h  Hammer-on
| p  Pull-off

************************************

            
            
Suggest correction
Creating personal tab
Creating personal tab
You can edit any tab online and save it as your Personal.

You can edit, replace or remove any tab part or add personal notes – all changes will be seen only by you.

Personal tabs can be accessed anytime from any device, even offline.
Learn more »
comments
print report bad tab
184 comments total. Showing first comments.
+18 reply
jorisdance 10 Nov 13, 2013 11:49 AM

i blevive he does not do a hammer on on the b string on the first string and he also plays a hammer on d string 3 string

+31 reply
lockstarr 10 Nov 14, 2013 10:11 PM

Thanks! I have been trawling the net for a free version of the intro. sonds pretty much the same as how ed plays it. Good Job!

+152 reply
forst97 10 Nov 27, 2013 01:03 PM

e|-------------------------x
B|-----------0h1-----------x
G|2h4p20---0-0-------------x
D|------0h2--2-------------x
A|-----------3-------------x
E|0------------------------x
what do you think?

guest
You may want to rate the tab now too:
select rating
Wanna post a correction for this tab? Suggest correction