Oops, an error
Loading. Please wait.
We have Chord Pro version of I See Fire.
It's the closest thing you can get to the original song and it has interactive parts. Check out the tab »
×

I See Fire tab

version 5
version 5

Whole song

Video

2,929 views 30 this week
1 commentread comment
1 2 3 4 5
x 5
add to favorites
×
Save as Personal and add changes to this tab that will be seen only by you. Learn more ›
×
You can save this tab as Personal to edit and correct it or add notes. All changes will be seen only by you. Learn more »
launch autoscroll
font size
0
reset
how to read this tab
guitar tuner
edit
Autoscroll
slow
fast
+/-
esc
set tempo
stop
About this tab version
I haven't seen any tab like this before and I have tried a lot of different ways of playing this song before I cam to the conclusion that this was the best. Was this info helpful? Yes No
-------------------------------------------------------------------------------
                             I see Fire - Ed Sheeran
-------------------------------------------------------------------------------
Tabbed by: Alexander Runsten

I see fire by  Ed Sheeran made for The Hobbit The Desolation of Smaug. 
Great song! Enjoy!

Tuning: Standard
Capo on 6th fret

X = Tap string with thumb
S = Strum down

Between the first and second part of the first verse play the second part of the intro again.
Play the bridge the same way as the verse. 

Intro
                             S
e|---------------------------0--------------------------------------|
B|-------0-------------------0h1--------3----3-----0----------------|
G|-------2h4p2p0--------0----0----------0h2--2-----0----------------|
D|------------------0h2------2----------0----------2----------------|
A|---------------------------3--------------------------------------|
E|--X----0-----------------------X-------------X---0-----X----------|

                             S
e|---------------------------0--------------------------------------|
B|-------0-------------------0h1--------3----3----------------------|
G|-------2h4p2p0--------0----0----------0h2--2-----0----------------|
D|------------------0h2------0h2--------0----------2----------------|
A|---------------------------3---------------------2----------------|
E|-------0-----------------------X-------------X---0----X-----------|


Verse

     Em      G          D         C
e|----------------------------------------------------------|
B|------------------------------3---------------------------|
G|------------0-----------------0h2-------0-----------------|
D|------------2------0----------0---------0h2---------------|
A|------------2------2--------------------3-----------------|
E|------------0--X---3-----X---------X----------X-----------|
If this is to end in fire .....


    Em      G          D         C
e|-------------------------------------------------|
B|---------------------3---------------------------|
G|---0-----------------0h2-------0-----------------|
D|---2------0----------0---------2-----------------|
A|---2------2--------------------3-----------------|
E|---0--X---3-----X---------X----------X-----------|

     Em      G          D         C
e|-------------------------------------------------|
B|---------------------3---------------------------|
G|---0-----------------0h2-------0-----------------|
D|---2------0----------0---------0h2---------------|
A|---2------2--------------------3-----------------|
E|---0--X---3-----X---------X----------X-----------|


e|----------------------------------|
B|---1---------3------------1-------|
G|---0---------0------------0-------|
D|---0h2--------------------2-------|
A|-------------2------------3-------|
E|------X------------X--------------|


Chorus
Play four times

     Em      C            D        Em
e|------------------------2--2-------------------------------|
B|-----------1---1--------3--3-------------------------------|
G|---0--0----0---0--------2--------0---0---------------------|
D|---2--2----2------------0--------2---2---------------------|
A|---2-------3---------------------2-------------------------|
E|---0----X----------X----------X--0-------------------------|



            
            
Suggest correction
Creating personal tab
Creating personal tab
You can edit any tab online and save it as your Personal.

You can edit, replace or remove any tab part or add personal notes – all changes will be seen only by you.

Personal tabs can be accessed anytime from any device, even offline.
Learn more »
comments
print report bad tab
1 comment total.
0 reply
emilstork 20 Feb 27, 2017 12:17 PM

didn't like this contribution

guest
You may want to rate the tab now too:
select rating
Wanna post a correction for this tab? Suggest correction