Oops, an error
Loading. Please wait.
We have Chord Pro version of I See Fire.
It's the closest thing you can get to the original song and it has interactive parts. Check out the tab »
×

I See Fire tab

version 7
version 7

Whole song

Video

1,378 views 9 this week
no commentswrite comment
1 2 3 4 5
2 more votes to show rating
add to favorites
×
Save as Personal and add changes to this tab that will be seen only by you. Learn more ›
×
You can save this tab as Personal to edit and correct it or add notes. All changes will be seen only by you. Learn more »
launch autoscroll
font size
0
reset
how to read this tab
guitar tuner
edit
Autoscroll
slow
fast
+/-
esc
set tempo
stop
About this tab version
This specific tab is based off the music video ( https://www.youtube.com/watch?v=2fngvQS_PmQ ) and here is a link to one of many really good video for those that are having problems with the song ( https://www.youtube.com/watch?v=0dy9MJFyI98 ) This tab contains both the tabs by itself, then a chord and lyrics version to make it simpler for those that also want to sing whilst playing. Was this info helpful? Yes No
This is the whole tab without the lyrics,
the lyrics will be below with the chords
but it's played the same way as the tab only one:

[Intro]

N.C.
N.C.
N.C.
N.C.      Em (s)

                 C           D       Em
e|------------------------|--2-----------|
B|-(5)------------0h1--x--|--3----x--0--x|
G|--2h4p2p0-----0-0----x--|--0h2--x--0--x|
D|----------0h2---2----x--|--0----x--2--x|
A|----------------3----x--|-------x-----x|
E|--0---------------------|----------0---| 2x


[Verse]

   Em    G     D       C         Em    G     D       Am7
e|-------2-----2---------------|-------2-----2-------------|
B|-0--x--2--x--3----x--0h1--x--|-0--x--2--x--3----x--1--x--|
G|-0--x--0--x--0h2--x--0----x--|-0--x--0--x--0h2--x--0--x--|
D|-2--x--0--x--0----x--2----x--|-2--x--0--x--0----x--2--x--|
A|----x-----x-------x--3----x--|----x-----x-------x--0--x--|
E|-0-----2---------------------|-0-----2-------------------|

   Em    G     D       C         Am    Bm    C
e|-------2-----2---------------|---------------------|
B|-0--x--2--x--3----x--0h1--x--|-1--x--3--x--0h1--x--|
G|-0--x--0--x--0h2--x--0----x--|-2--x--4--x--0----x--|
D|-2--x--0--x--0----x--2----x--|-2--x--4--x--2----x--|
A|----x-----x-------x--3----x--|-0--x--2--x--3----x--|
E|-0-----2---------------------|---------------------|

                 C           D       Em
e|------------------------|--2-----------|
B|-(5)------------0h1--x--|--3----x--0--x|
G|--2h4p2p0-----0-0----x--|--0h2--x--0--x|
D|----------0h2---2----x--|--0----x--2--x|
A|----------------3----x--|-------x-----x|
E|--0---------------------|----------0---|

[Verse]

   Em    G     D       C         Em    G     D       Am7
e|-------2-----2---------------|-------2-----2-------------|
B|-0--x--2--x--3----x--0h1--x--|-0--x--2--x--3----x--1--x--|
G|-0--x--0--x--0h2--x--0----x--|-0--x--0--x--0h2--x--0--x--|
D|-2--x--0--x--0----x--2----x--|-2--x--0--x--0----x--2--x--|
A|----x-----x-------x--3----x--|----x-----x-------x--0--x--|
E|-0-----2---------------------|-0-----2-------------------|

   Em    G     D       C         Am    Bm    C         Am    Bm    C
e|-------2-----2---------------|---------------------|---------------------|
B|-0--x--2--x--3----x--0h1--x--|-1--x--3--x--0h1--x--|-1--x--3--x--0h1--x--|
G|-0--x--0--x--0h2--x--0----x--|-2--x--4--x--0----x--|-2--x--4--x--0----x--|
D|-2--x--0--x--0----x--2----x--|-2--x--4--x--2----x--|-2--x--4--x--2----x--|
A|----x-----x-------x--3----x--|-0--x--2--x--3----x--|-0--x--2--x--3----x--|
E|-0-----2---------------------|---------------------|------------------x--|


[Chorus]

   Em(s) C(s)      D(s)     Em(s)             Am(s*)
e|-0---------------2---2-2--0-0-0-0--|     e|-0---|
B|-0-----0h1-1-1-1-3---3-3--0-0-0-0--|     B|-1---|
G|-0-----0---0-0-0-0h2-2-2--0-0-0-0--|     G|-2---|
D|-2-----2---2-2-2-0---0-0--2-2-2-2--|     D|-2---|
A|-2-----3---3-3-3----------2-2-2-2--|     A|-0---|
E|-0-2-3--------------------0-0-0-0--| 4x  E|-----|

   Em(s) C(s)      D(s)     Em(s)      
e|-0---------------2---2-2--0-0-0-0--|
B|-0-----0h1-1-1-1-3---3-3--0-0-0-0--| 
G|-0-----0---0-0-0-0h2-2-2--0-0-0-0--|
D|-2-----2---2-2-2-0---0-0--2-2-2-2--|
A|-2-----3---3-3-3----------2-2-2-2--|
E|-0-2-3--------------------0-0-0-0--| 2x

[Verse]

   Em    G     D       C         Em    G     D       Am7
e|-------2-----2---------------|-------2-----2-------------|
B|-0--x--2--x--3----x--0h1--x--|-0--x--2--x--3----x--1--x--|
G|-0--x--0--x--0h2--x--0----x--|-0--x--0--x--0h2--x--0--x--|
D|-2--x--0--x--0----x--2----x--|-2--x--0--x--0----x--2--x--|
A|----x-----x-------x--3----x--|----x-----x-------x--0--x--|
E|-0-----2---------------------|-0-----2-------------------|

   Em    G     D       C         Am    Bm    C      Am    Bm    C
e|-------2-----2---------------|------------------|---------------------|
B|-0--x--2--x--3----x--0h1--x--|-1--x--3--x--0h1--|-1--x--3--x--0h1--x--|
G|-0--x--0--x--0h2--x--0----x--|-2--x--4--x--0----|-2--x--4--x--0----x--|
D|-2--x--0--x--0----x--2----x--|-2--x--4--x--2----|-2--x--4--x--2----x--|
A|----x-----x-------x--3----x--|-0--x--2--x--3----|-0--x--2--x--3----x--|
E|-0-----2---------------------|------------------|------------------x--|

[Chorus]

   Em(s) C(s)      D(s)     Em(s)     
e|-0---------------2---2-2--0-0-0-0--|   
B|-0-----0h1-1-1-1-3---3-3--0-0-0-0--|   
G|-0-----0---0-0-0-0h2-2-2--0-0-0-0--|
D|-2-----2---2-2-2-0---0-0--2-2-2-2--|  
A|-2-----3---3-3-3----------2-2-2-2--|   
E|-0-2-3--------------------0-0-0-0--| 3x 

   Em(s) C(s)      D(s)     Am(s)      Am(s*)
e|-0---------------2---2-2--0-0-0-0--|-0---|
B|-0-----0h1-1-1-1-3---3-3--1-1-1-1--|-1---|
G|-0-----0---0-0-0-0h2-2-2--2-2-2-2--|-2---|
D|-2-----2---2-2-2-0---0-0--2-2-2-2--|-2---|
A|-2-----3---3-3-3----------0-0-0-0--|-0---|
E|-0-2-3-----------------------------|-----|

[Bridge] + Strumming pattern

  (D-UD,   UDU,    D-UD,   UDU)       (D-UD for all of them)
   Am(s)   Em(s)   G(s)    D(s)        Am       G/B  Cadd9  D 
e|-0-------0-------2-------3--|     e|-0--0--0--3----3--3---3---3--|
B|-1-------0-------2-------2--|     B|-1--1--1--3----3--3---2---2--|
G|-2-------0-------0-------3--|     G|-2--2--2--0----0--0---3---3--|
D|-2-------2-------0-------0--|     D|-2--2--2--0----2--2---0---0--|
A|-0-------2-------3----------|     A|-0--0--0--2----3--3----------|
E|---------0-------2----------| 3x  E|-----------------------------|

[Chorus]

   Em(s) C(s)      D(s)     Em(s)     
e|-0---------------2---2-2--0-0-0-0--|   
B|-0-----0h1-1-1-1-3---3-3--0-0-0-0--|   
G|-0-----0---0-0-0-0h2-2-2--0-0-0-0--|
D|-2-----2---2-2-2-0---0-0--2-2-2-2--|  
A|-2-----3---3-3-3----------2-2-2-2--|   
E|-0-2-3--------------------0-0-0-0--| 8x 

************************************

| x   Dead note
| h   Hammer-on
| p   Pull-off
| s   Strum
| *   Strum once
|()   Optional, you don't have to play it

************************************

---------------------------------------------------

Here's the one with only the chord and lyrics

Chords:

Em: 022000    G: 320022    D: xx0323    C: x32010

Am: x02210    Am7: x02010    Bm: x24432 (Bar chord)

G/B:x20033    Cadd9: x32033

---------------------------------------------------

[Intro]

N.C.
Oh, misty eye of the mountain below
N.C.
Keep careful watch of my brother's souls
N.C.
And should the sky be filled with fire and smoke
N.C.                       Em*
Keep watching over Durin's sons


                 C           D       Em
e|------------------------|--2-----------|
B|-(5)------------0h1--x--|--3----x--0--x|
G|--2h4p2p0-----0-0----x--|--0h2--x--0--x|
D|----------0h2---2----x--|--0----x--2--x|
A|----------------3----x--|-------x-----x|
E|--0---------------------|----------0---| 2x


[Verse]
              Em     G
If this is to end in fire
              D        C
Then we shall all burn together
          Em         G   
Watch the flames climb high
D        Am7
Into the night
        Em           G 
Calling out father oh
D            C
Stand by and we will
          Em          G          
Watch the flames burn auburn on
    D        C
the mountain side
                 C           D       Em
e|------------------------|--2-----------|
B|-(5)------------0h1--x--|--3----x--0--x|
G|--2h4p2p0-----0-0----x--|--0h2--x--0--x|
D|----------0h2---2----x--|--0----x--2--x|
A|----------------3----x--|-------x-----x|
E|--0---------------------|----------0---|

                 Em      G
And if we should die today
         D       C
We shall all die together
        Em       G
Raise a glass of wine
D       Am7
For the last time
        Em     G
Calling out father oh
D          C
Prepare as we will
          Am          Bm            
Watch the flames burn auburn on
     C
the mountain side
Am         Bm              C
Desolation comes upon the sky


[Chorus]
          Em    C
Now I see fire
D          Em
Inside the mountain 
       Em    C
 I see fire
D           Em
Burning the trees
          Em   C
And I see fire
D         Em
Hollowing souls
         Em   C
I see fire
D           Em
Burn in the breeze
      Am*
And I hope that you remember me

                 C           D       Em
e|------------------------|--2-----------|
B|-(5)------------0h1--x--|--3----x--0--x|
G|--2h4p2p0-----0-0----x--|--0h2--x--0--x|
D|----------0h2---2----x--|--0----x--2--x|
A|----------------3----x--|-------x-----x|
E|--0---------------------|----------0---| 2x


[Verse]
             Em     G
Oh should my people fall then
      D            C
Surely I'll do the same
             Em       G 
Come find in mountain halls we
         D           Am7
Got too close to the flame
        Em        G  
Calling out father oh
D             C
Hold fast and we will
          Em          G         
Watch the flames burn auburn on
    D        C
the mountain side
    Am     Bm             C
Desolation comes upon the sky


[Chorus]
          Em    C
Now I see fire
D          Em
Inside the mountain 
       Em    C
 I see fire
D           Em
Burning the trees
          Em   C
And I see fire
D         Em
Hollowing souls
         Em   C
I see fire
D           Em
Burn in the breeze
      Am*
And I hope that you remember me


[Bridge]
           Am       Em
And if the night is burning
       G        D
I will cover my eyes
           Am     Em  
For if the dark returns
        G             D
then my brothers will die
           Am             Em
And as the sky is falling down it
        G                D
Crashed into this lonely town
          Am                               
With that shadow upon the ground
   G/B    Cadd9             D 
I hear my people screaming out


[Chorus]
          Em    C
Now I see fire
D          Em
Inside the mountain 
       Em    C
 I see fire
D           Em
Burning the trees
          Em   C
And I see fire
D         Em
Hollowing souls
         Em   C
I see fire
D           Em
Burn in the breeze

      Em    C                   D            C
I see fire (Oh you know I saw a city burning out)(fire)

      Em    C                     D     C
I see fire (feel the heat upon my skin, yeah)(fire)

      Em    C      D  C
I see fire  (uh-uh-uh-uh)(fire)
          Em        C             D        C
And I see fire burn auburn on the mountain side

************************************

| x   Dead note
| h   Hammer-on
| p   Pull-off
| *   Strum once
|()   Optional, you don't have to play it

************************************

            
            
Suggest correction
Creating personal tab
Creating personal tab
You can edit any tab online and save it as your Personal.

You can edit, replace or remove any tab part or add personal notes – all changes will be seen only by you.

Personal tabs can be accessed anytime from any device, even offline.
Learn more »
Give kudos to tab author, rate the tab!
1 2 3 4 5
comments
print report bad tab
guest
You may want to rate the tab now too:
select rating
Wanna post a correction for this tab? Suggest correction