Oops, an error
Loading. Please wait.

Kiss Me chords

version 10
version 10

Whole song

Interactive

Video

6,124 views 21 this week
1 commentread comment
1 2 3 4 5
x 8
add to favorites
×
Save as Personal and add changes to this tab that will be seen only by you. Learn more ›
×
You can save this tab as Personal to edit and correct it or add notes. All changes will be seen only by you. Learn more »
launch autoscroll
font size
0
reset
transpose
0
reset
simplify chords
display chords
guitar tuner
edit
Autoscroll
slow
fast
+/-
esc
set tempo
stop
Strumming
There is no strumming pattern for this song yet. and get +5 IQ
KISS ME - Ed Sheeran
Capo on 2nd Fret

[Intro]
One, Two, Three, Four
C    G  Am    G  F    F  C  G/C

                      C       G  Am       G  F      F  C
e|--------------------------------------------------------|
B|----------------------------8---------------------------|
G|-----5/7--7\5-------8/9--------9--5---------------------|
D|--5-------------------------------------5/7--5----------|
A|--------------------------------------------------------|
E|-----------------------------------------------------8--|

[Verse 1a]
C             G    Am
  Settle down with me
G     F
Cover me up
F      C 
Cuddle me in

[Verse 1b]
C          G    Am
  Lie down with me
    G  F     F  C
And ho-ld me in your arms

[Pre-Chorus]
F                             G                                   C
  And your heart's against my chest, your lips pressed to my neck
                     Am                           F
I'm falling for your eyes, but they don't know me yet
                            G*
And with a feeling I'll for-get, I'm in love now

[Chorus]
C                  G     Am
  Kiss me like you wanna be loved
    G     F
You wanna be loved
    F     C
You wanna be loved
C                 G       Am
  This feels like falling in love
G       F
Falling in love
      F       C
We're falling in love

[Verse 2a]
C             G    Am
  Settle down with me
                 G  F
And I'll be your sa-afety
             F  C
You'll be my la-ady

[Verse 2b]
C            G Am                        G F
  I was made      to keep your body warm
                               F C
But I'm cold as the wind blows     so hold me in your arms

[Pre-Chorus]
F
Oh no                             
                        G                                   C
My heart's against your chest, your lips pressed to my neck
                     Am                           F
I'm falling for your eyes, but they don't know me yet
                               G*
And with this feeling I'll for-get, I'm in love now

[Chorus]
C                  G     Am
  Kiss me like you wanna be loved
    G     F
You wanna be loved
    F     C
You wanna be loved
C                 G       Am
  This feels like falling in love
G       F
Falling in love
      F       C
We're falling in love

[Solo]
C    G  Am    G  F    F  C x2
or
e|--------------------------------------------|
B|----------------------8-------------------5-|
G|--(5\7--7/5)--8/9-------7--5-------5h7------|
D|--------------------------------------------|
A|--------------------------------------------|
E|--------------------------------------------|

e|--------------------------------------------|
B|----------------------------5-----8---------|
G|-----------------5------5/7---------7p5---5-|
D|------5------5h7----7-------------------7---|
A|--5h7----7----------------------------------|
E|--------------------------------------------|

e|--------------------------------------------|
B|-------------------8---8---8---8---8--------|
G|-(5\7--7/5)--7/9---9---9---9---9---7-----5--|
D|--------------------------------------------|
A|--------------------------------------------|
E|--------------------------------------------|

e|---------------8---8/10--10h12--11p10--(8~)-|
B|-----8--10--8-------------------------------|
G|--9-----------------------------------------|
D---------------------------------------------|
A|--------------------------------------------|
E|--------------------------------------------|

[Bridge]
G (3554xx)                   G/Ab (4554xx)
Yeah I've been feeling everything
From hate to love
             Am (755xxx)
From love to lust
             
From lust to truth
  G(3554xx)            F(1332xx)
I   guess that's how I know you
     Fm* (133111)
So I hold you close to help you give it up

[Chorus]
C                     G     Am
  So kiss me like you wanna be loved
    G     F
You wanna be loved
    F     C
You wanna be loved
C                 G       Am
  This feels like falling in love
G       F
Falling in love
      F       C
We're falling in love

Chorus (softer):
C                  G     Am
  Kiss me like you wanna be loved
    G     F
You wanna be loved
    F     C
You wanna be loved
C                 G       Am
  This feels like falling in love
G       F
Falling in love
      F       C
We're falling in love

[Outro]
C    G  Am    G  F    F  C

************************************

| /  Slide up
| \  Slide down
| h  Hammer-on
| p  Pull-off

************************************

            
            
Suggest correction
Creating personal tab
Creating personal tab
You can edit any tab online and save it as your Personal.

You can edit, replace or remove any tab part or add personal notes – all changes will be seen only by you.

Personal tabs can be accessed anytime from any device, even offline.
Learn more »
comments
print report bad tab
1 comment total.
0 reply
ethanusa20041 10 Jul 08, 2017 04:33 PM

the f chord doesn't sound right in the song you should use a substitute instead

guest
You may want to rate the tab now too:
select rating
Wanna post a correction for this tab? Suggest correction